Oops, an error
Loading. Please wait.

Unidos Tab

516 views 3 this week
no commentswrite comment
1 2 3 4 5
3 more votes to show rating
add to favorites
launch autoscroll
font size
0
reset
how to read this tab
guitar tuner
×
Best way to learn
"Unidos"
Autoscroll
slow
fast
+/-
esc
set tempo
stop
INTRO:

Les recomiendo que escuchen el tiempo de la canción
para que vean en que momento se hacen los cambios.
e|----------------------- \     e|--------17---------
B|-15--14--10--12--------  \ x3 B|--15--17---19-19b20~
G|-----------------11--9-  /    G|-------------------
D|----------------------- /     A|-------------------


D                G                  Bm  A             (G-G-GG--D/F#-D/F-A)
Vengan todos adoremos con gran alegría  a  nuestro Señor
D                G                      Bm     A        (G-G-GG-D/F#-D/F#-A)
Todos juntos levantando en alto el poderoso nombre de Jesús

G               A
El cielo canta hoy
    Bm           A
La tierra grita hoy

CORO:

MELODÍA:
e|---------------------------------------------------------\
B|12-12-12------------------------------------------------- \
G|---------12-12-12-14-14-14-------------------------------  \
D|---------------------------12-12-12-14-12----------------  /todo el coro.
A|------------------------------------------14-12---------- /
E|---------------------------------------------------------/


Bm D  G-A
Todos
 Bm   D   G
Uni---dos
A A   Bm   D  G  A
A-[ch]C-ran---DO[/ch]
    G           A
a nuestro Salvador y Rey

Bm    D G-A
Tiembla
    Bm   D    G
la tie---rra
A    A  Bm   D G A
Cuan-do adoramos
G            A             Bm
el poderoso nombre de Jesús

*Repites el Intro y el coro*

PUENTE:

La primera vez que cantan "Los cielos se estremecen.."

e|--------------------\
B|-----------8---------\ Juega con el acorde D, y
G|----7-7--------------/  Escucha la canción.
D|---7-7--------------/

La segunda vez es:
e|----------------------------------------------------------
B|12-12-12-10-12-12-12-10-12-12-12-14-14b15rb14------X2-----
G|----------------------------------------------------------
D|----------------------------------------------------------

La tercera vez es:
e|19-19-19-17-19-19-19-17-19-19-19-21b22-21----------------
B|---------------------------------------------------------
G|---------------------------------------------------------

Luego Repiten el Coro y el Intro para terminar

e|--------------------------------------------------
B|12-12-12------------------------------------------
G|---------12-12-12-14-14-14------------------------
D|---------------------------12-12-12-14-12---------
A|------------------------------------------14-12---
E|--------------------------------------------------


Bm D  G-A
To-dos
 Bm   D   G
Unidos
Em   Bm   D  G  A
Ado-ran---DO
    G           A
a nuestro Salvador y Rey

Bm    D G-A  Bm   D    G
Tiembla     [ch]A[/ch] tierra

Em  Bm   D G A
Cuando adoramos

G            A             Bm
el poderoso nombre de Jesús

e|-------------------------------17---------
B|-15--14--10--12----------15--17---19-19b20~
G|-----------------11--9--------------------
D|------------------------------------------
Suggest correction
Give kudos to tab author, rate the tab!
1 2 3 4 5
comments
print report bad tab
guest
You may want to rate the tab now too:
select rating
Wanna post a correction for this tab? Suggest correction