Oops, an error
Loading. Please wait.

Sometido Bass

14 views 1 this week
no commentswrite comment
1 2 3 4 5
3 more votes to show rating
add to favorites
launch autoscroll
font size
0
reset
guitar tuner
Autoscroll
slow
fast
+/-
esc
set tempo
stop
Cancion: Sometido
Grupo: MierdasteR
Afinacion: Standard(ebgd)
Transcripción hecha por: Pedro Muñoz
E-mail: freds_hackers182@

    
 
  INTRO : ------> el bajo empieza con la bateria
G---------------------------------------------------------------------------------------
D-------------------4-2-4-2----------------------------------------------------4-2-4-2--
A--22222222222--------------4-------------44444444444----7---7----7----2222222--------4-
E-----------------------------22222222222--------------00--00---00----------------------


  VERSO : ----->'Cada día veo pasar...'
G-------------------------------------------------------
D-------------------------------------------------------   X2
A---2222222222------------------------------------------
E--------------000000000---4444444444--22222222222------


  PUENTE :  
G----------------------------------------------------------------------------
D----------------------------------------------------------------------------
A-----------22222222------------------------------22222222-------------------
E-000000--2----------000000-2--4444444---000000-2-----------000000-2-2222222-


 VERSO : --->'A veces suelo pensar...'
G-------------------------------------------------------
D-------------------------------------------------------   X2
A---2222222222------------------------------------------
E--------------000000000---4444444444--22222222222------


  CORO :  -->'no me kiero enamorar...'
G--------------------------------------------------------------------------------------------___aki va la intro de nuevo'
D-------------------------------------------------------------------------------------------/
A------------------------------------------------------------------------------------------/
E---0000000----44444444--00000000--4444444444---00000000--44444444--00000000--22222222-----


VERSO : --->'Cuando vas tu a venir?.....'
G-------------------------------------------------------
D-------------------------------------------------------   X2
A---2222222222------------------------------------------
E--------------000000000---4444444444--22222222222------


  CORO :  -->'no me kiero enamorar...'
G------------------------------------------------------------------------------------------
D------------------------------------------------------------------------------------------
A------------------------------------------------------------------------------------------
E---0000000----44444444--00000000--4444444444---00000000--44444444--00000000--22222222-----


PUENTE 2 : ---->' Y ya capte lo ke dices......'
G----------------------------------------------------------------------------   ___aki va la intro de nuevo'!
D----------------------------------------------------------------------------  /
A--------2222222-------------------------------2222222----------------------- /
E-000000---------00000000--44444444----0000000----------0000000--444444444--_/


TERMINA EN  A---2~~---
Suggest correction
Give kudos to tab author, rate the tab!
1 2 3 4 5
comments
print report bad tab
guest
Wanna post a correction for this tab? Suggest correction