Oops, an error
Loading. Please wait.

Sometido Tab

24 views 1 this week
no commentswrite comment
1 2 3 4 5
3 more votes to show rating
add to favorites
launch autoscroll
font size
0
reset
how to read this tab
guitar tuner
Autoscroll
slow
fast
+/-
esc
set tempo
stop
Help us to improve Ultimate-Guitar.com Take our survey!
×
Intro 1:

e-----------------------------------------------------------
b-----------------------------------------------------------
g-4-----------4-----------------6-----------6--9-----------9
d-4-----------4--4-----------4--6-----------6--9-----------9
a-2-222222222-2--4-----------4--4-444444444-4--7-777777777-7
E----------------2-222222222-2------------------------------
   ppppppppp      ppppppppp      ppppppppp      ppppppppp

e---------------------------------------------------------
b---------------------------------------------------------
g-4-----------4-----------------6-----------6--99999999999
d-4-----------4--4-----------4--6-----------6--99999999999
a-2-222222222-2--4-----------4--4-444444444-4--77777777777
E----------------2-222222222-2----------------------------
   ppppppppp      ppppppppp      ppppppppp

*p = Apañado*


Intro 2:

[ch]B [ch]F#[/ch] [ch]D#[/ch] *Riff* (x2) SI[/ch]

*Riff*
e---------------------------
b---------------------------
g-----9------9------9------9
d-----9------9------9------9
a-----7------7------7------7
E-0-0----0-0----0-0----0-0--


Estrofa:

[ch]B[/ch]                 [ch]E[/ch]
  Cada día veo pasar
                       [ch]G#[/ch]
  se que no hago nada mal
                        [ch]F#[/ch]
  siempre espero tu llegar
[ch]B[/ch]                      [ch]E[/ch]
  No me importa que día es
                        [ch]G#[/ch]
  donde quiera que tu estés
                      [ch]F#[/ch]
  yo te voy a encontrar


Puente:

------------------------------------ ------------------------------------
------------------------------------ ------------------------------------
------------------------------------ ------------------------------------
---------------------4-4-4-4-4-4-4-4 ------------------------------------
-2--2--2--2--2--2-4--2-2-2-2-2-2-2-2 -2--2--2--2--2--2-4--6-6-6-6-6-6-6-6
-0--0--0--0--0--0-2----------------- -0--0--0--0--0--0-2--4-4-4-4-4-4-4-4

------------------------------------ ------------------------------------
------------------------------------ ------------------------------------
------------------------------------ ------------------------------------
---------------------4-4-4-4-4-4-4-4 ------------------------------------
-2--2--2--2--2--2-4--2-2-2-2-2-2-2-2 -2--2--2--2--2--2-4--4-4-4-4-4-4-4-4
-0--0--0--0--0--0-2----------------- -0--0--0--0--0--0-2--2-2-2-2-2-2-2-2


[ch]B[/ch]                 [ch]E[/ch]
  A veces suelo pensar
                       [ch]G#[/ch]
  si realmente vas a estar
                    [ch]F#[/ch]
  ya no quiero soledad
[ch]B[/ch]                    [ch]E[/ch]
  es que no quiero morir
                      [ch]G#[/ch]
  sin antes poder sentir
                         [ch]F#[/ch]
  lo que es querer de verdad


Coro:

[ch]E                  SOL#[/ch]
  No me quiero enamorar

  No me quiero enamorar
[ch]E                  SOL#[/ch]
  No me quiero enamorar

  No me quiero enamorar
[ch]E                  SOL#[/ch]
  No me quiero enamorar

  No me quiero enamorar
[ch]E                  FA#[/ch]
  No me quiero enamorar


(Intro 2)

[ch]B[/ch]                   [ch]E[/ch]
  Cuando vas tu a venir
                       [ch]G#[/ch]
  ya me empiezo a aburrir
                       [ch]F#[/ch]
  estoy cansado de esperar
[ch]B[/ch]                   [ch]E[/ch]
  Desde que te busco yo
                              [ch]G#[/ch]
  nunca he vuelto a ser el mismo
                     [ch]F#[/ch]
  eso me a hecho cambiar


(Coro)


       [ch]E[/ch]
  Y ya capte lo que haces
          [ch]B[/ch]
  tu eres caña y yo soy pez
       [ch]E             SOL#[/ch]
  pero tú no quiere pecar
     [ch]E[/ch]
  y así porque quiero yo
            [ch]B[/ch]
  nunca he vuelto a ser rudo
     [ch]E           SOL#[/ch]
  que asco es el amor.


(Coro)


(Intro 2)


Acordes:

   [ch]B [ch]E[/ch]  [ch]G#[/ch] FA#[/ch]
e-----------------
b-----------------
g--4--------------
d--4---2---6---4--
a--2---2---6---4--
E------0---4---2--
Suggest correction
Give kudos to tab author, rate the tab!
1 2 3 4 5
comments
print report bad tab
guest
You may want to rate the tab now too:
select rating
Wanna post a correction for this tab? Suggest correction