Oops, an error
Loading. Please wait.

Unidos En El Canto Bass Tab

17 views 1 this week
no commentswrite comment
1 2 3 4 5
3 more votes to show rating
add to favorites
launch autoscroll
font size
0
reset
guitar tuner
Autoscroll
slow
fast
+/-
esc
set tempo
stop
Help us to improve Ultimate-Guitar.com Take our survey!
×
INTRO(X2)
G---------------------------------------------
D------44444444444----------------------------
A------------------222222222------------------
E---------------------------------------------

Verso(X2)
G---------------------------------------------------
D---444444444---------------------------------------
A------------44444444--4-3-2-2222222222-----22------
E---------------------------------------2-2----2-222

CORO(X2)
G---------------------------------------------
D---4444444444--------------------------------
A-------------222222222-444444444-222222222---
E---------------------------------------------

entre coro y verso
G------------------------------4---------------
D------------------------3-4-6---6---1-2-3-4---
A--222222222-----------4-----------2-----------
E-----------222222222--------------------------

Verso(x2)
CORO(x2)

Interlude
G-----------------/y una extra que va así--------
D-----------------/------------------------------
A---6*-4*-2*--(x3)/--6*-4*-2*---------4*---------
E-----------------/----------444444444-----------

CORO---solo bateria y voz---(x1)
CORO(x5)

FINAL
G---------------------------------------------
D--------------4*-----------------------------
A---4444444444--------------------------------
E---------------------------------------------

PD: es muy facil escuchen bien los tiempos...
pasenlo bien y disfruten
Suggest correction
Give kudos to tab author, rate the tab!
1 2 3 4 5
comments
print report bad tab
guest
You may want to rate the tab now too:
select rating
Wanna post a correction for this tab? Suggest correction