Oops, an error
Loading. Please wait.

Unidos En El Canto Tab

10 views 1 this week
no commentswrite comment
1 2 3 4 5
3 more votes to show rating
add to favorites
launch autoscroll
font size
0
reset
how to read this tab
guitar tuner
×
Best way to learn
"Unidos En El Canto"
Autoscroll
slow
fast
+/-
esc
set tempo
stop
Cancion: Unidos en el Canto
Grupo: MierdasteR
Afinacion: Standard(ebgdaE)
Transcripción hecha por: Pedro Muñoz
E-mail: freds_hackers182@

Acordes Usados:

  F#ii  F#5 C#5   B  G#5   
e|-------------------------|
b|-------------------------|
g|-11-------6-----4--------|
d|-11---4---6-----4---6----|
a|-9----4---4-----2---6----|
E|------2-------------4----|

* = Palm mute
h = Hammer on
p = Pull off


INTRO 
F#ii* X3 (luego se calla la nota)


VERSE
F#ii-C#-B-F#-B  X2

CORO 1:
F#ii-B-C#-B

LEAD1: (Va con los acordes del coro)


e|--------------------------------------------------------------------------------------|
b|---12-12h13--12-12h13--12-12h13--12-12h13~--14-14h15--14-14h15--14-14h15--15-14--14p1-|
g|--------------------------------------------------------------------------------------|
d|--------------------------------------------------------------------------------------|
a|--------------------------------------------------------------------------------------|
E|--------------------------------------------------------------------------------------|


VERSE2:
F#ii-C#-B-F#-B  X2


CORO 2:
F#ii-B-C#-B
r
PUNTEO: ( Va con los acodes del coro


e|----------------------------------------------------------------------------|
b|--10h11--12-11-10---99---777~-----11h12--12--11-11--99---12-12--11-11-------|
g|-----------------------------------------------------------------------1313~|
d|----------------------------------------------------------------------------|
a|----------------------------------------------------------------------------|
E|----------------------------------------------------------------------------|


e|----------------------------------------------------------------------------|
b|-6-7-6-7-6-7-6-7~~~---7--66--44--22--44--6-7-6-7-6-7-6h9-7~~~---------------|
g|----------------------------------------------------------------------------|
d|----------------------------------------------------------------------------|
a|----------------------------------------------------------------------------|
E|----------------------------------------------------------------------------|


CORO 3:
F#ii-B-C#-B

TERMINA EN F#ii!!!!!

LETRAS

Cuando me junto con mis hermanos 
y pretendemos hacer cagar el lugar 
siento las cuerdas y el calor de los
tubos y las luces que impulsaron nuestra
eterna amistad

Dejando mis problemas de lado
el rock and roll se toma mi alma
y mi razon fueron tantos lugares lejanos
que se van cercanos en un mar de emocion

Ayer tuvimos un miedo que nunca
pensamos en poder olvidar pero ahora
unidos en el canto sabemos 
que nada nos va a parar

Ingenuos como recien nacidos 
nos vimos inmersos en la tentación
pero cada uno supo con que carta jugar
para seguir su razon

Algunos se fueron y desaparecieron 
por cambios al puro interes
y otros nos quedamos unidos en esto
el orgullo esta en nuestra piel

Ayer tuvimos un miedo que nunca
pensamos en poder olvidar pero ahora
unidos en el canto sabemos 
que nada nos va a parar


esta es lejos la mejor canción MierdasteR...cantensela a un amigo...
VIVA EL PUNK!!!
Suggest correction
Give kudos to tab author, rate the tab!
1 2 3 4 5
comments
print report bad tab
guest
You may want to rate the tab now too:
select rating
Wanna post a correction for this tab? Suggest correction