Oops, an error
Loading. Please wait.

Howl Tab

163 views 15 this week
no commentswrite comment
1 2 3 4 5
3 more votes to show rating
add to favorites
launch autoscroll
font size
0
reset
how to read this tab
guitar tuner
Autoscroll
slow
fast
+/-
esc
set tempo
stop
Help us to improve Ultimate-Guitar.com Take our survey!
×
Author
Difficulty
Capo
novice
3rd fret
Hope you'll like it!


[First Part]

e|--------0-------0-------0-------0--------0-------0-------3-------3----|
B|----1-------1-------1-------1--------1-------1-------0-------0--------|
G|------2-------2-------2-------0--------2-------2-------4-------4------|
D|--2-------2-------2-------2--------3-------3-------5-------5----------|
A|----------------------------------------------------------------------|
E|----------------------------------------------------------------------|(x19)
  "The wolfs out there they ...


There are a lot of variations, most of the time hammer-ons. You can experiment but here's 
something I do often.
    
e|--------0-------0-------0-------0--------0-------0-------3-------3----|
B|------------1---------------1--------1-------1-------0-------0--------|
G|------2---------------2-------0--------2-------2-------4-------4------|
D|--0h2-----2---0---0h2-----2--------3-------3-------5-------5----------|
A|----------------------------------------------------------------------|
E|----------------------------------------------------------------------|


At the end of part one just stay on that last chord one bar longer

e|--------0-------0-------0-------0--------0-------0-------3-------3--------3-------3---|
B|----1-------1-------1-------1--------1-------1-------0-------0--------0-------0-------|
G|------2-------2-------2-------0--------2-------2-------4-------4--------4-------4-----|
D|--2-------2-------2-------2--------3-------3-------5-------5--------5-------5---------|
A|--------------------------------------------------------------------------------------|
E|--------------------------------------------------------------------------------------|(x1)


[Second Part]

e|--------1-------1-------1-------1-------0-------0-------0-------0-------0-------0-----|
B|----1-------1---------1-----1-------1-------1---------------1-------0-------0---------|
G|------2-------2---0h2---------2-------2-------2-------2-------2-------4-------4-------|
D|--0-------0---------------0-------2-------2-------0h2-----2-------0-------0-----------|
A|--------------------------------------------------------------------------------------|
E|--------------------------------------------------------------------------------------|

e|--------0-------0-------0-------0-------0-------0----|
B|----0-------0-------0-------0-------0-------0--------|
G|------4-------4-------4-------4-------4-------4------|
D|--0-------0-------0-------0-------0-------0----------|
A|-----------------------------------------------------|
E|-----------------------------------------------------|(x6)


************************************

| h   Hammer-on

************************************
Suggest correction
Give kudos to tab author, rate the tab!
1 2 3 4 5
comments
print report bad tab
guest
You may want to rate the tab now too:
select rating
Wanna post a correction for this tab? Suggest correction