Oops, an error
Loading. Please wait.

Dance chords

61 views 1 this week
no commentswrite comment
1 2 3 4 5
3 more votes to show rating
add to favorites
×
Save as Personal and add changes to this tab that will be seen only by you. Learn more ›
×
You can save this tab as Personal to edit and correct it or add notes. All changes will be seen only by you. Learn more »
launch autoscroll
font size
0
reset
transpose
0
reset
simplify chords
display chords
guitar tuner
edit
Autoscroll
slow
fast
+/-
esc
set tempo
stop
Strumming
There is no strumming pattern for this song yet. and get +5 IQ
    A5 Ab3  E5  Eb3  A5  B5 G#5 Gb5 F#5  C#5  
e|--------------------------------------------|
B|--------------------------------------------|
G|-----------9---8---9---11--8---6---11--13---|
D|-----------9---9---7---9---6---4---11--11---|
A|---7---7---7---6---7---9---6---4---9---11---|
E|---5---4-----------5---7---4---2-------9----|


[Intro]
              A5    Ab3    A5     Ab3
e|----------------------------------------|
B|----------------------------------------|
G|---x-x-x-x------------------------------|
D|---x-x-x-x------------------------------|
A|---x-x-x-x--7-7-7-7--7-7-7--7-7-7--7-7--|
E|---x-x-x-x--5-5-5-4--4-4-5--5-5-4--4-4--|

E5  Eb3  A5  B5    x3
E5  Eb3

e|------------------------------|
B|------------------------------|
G|------------------------------|
D|------------------------------|
A|--7-7-7-7--7-7-7--7-7-7--7-7--|
E|--5-5-5-4--4-4-5--5-5-4--4-4--|


[Verse 1]

+---------------------------------+
| It sounds great if you play the |
| verse chords like fingerpicking |
+---------------------------------+

B5         A5               B5          A5
Was it insecurity that has driven you insane
       B5           A5               G#5                A5
or the cruelty of a system prefering numbers instead of names?
B5            A5              B5            A5
Was it just antipathy towards ignorance and greed?
           B5           A5             G#5           A5
Was it the blood on our fingers or the hatred in our streets?


[Pre-Chorus]

     Gb5                               A5
It's killing me to watch you kill your brain
     Gb5           A5                 C#5
It's killing me to watch you dwell in pain


[Chorus]

              E5       Eb3    A5            
I'll pick you up, give me your hand
     E5        Eb3         A5          B5
I'll dance you through the flames!
     E5                    F#5
Your swollen eyes, they'll see again
A5                       C#5    B5
dancing through till the bitter end
E5                 Eb3              A5               
     I'll pick you up, give me your hand...


[Verse 2]

      B5       A5              B5               A5
We'll find a solution, we will find your smile again
B5               A5          G#5      
We'll be out for action just as we were back then!
          B5              A5             B5             A5
Of course some things are changing as we grow along the way
   B5             A5                G#5         A5
We just have to remember that we're living in today


[Pre-Chorus]

     Gb5                          A5 
It's killing me to watch you fade away
    Gb5                  A5             C#5
I'm sure once we'll have found a better way...


[Chorus]

              E5       Eb3     A5            
I'll pick you up, give me your hand
     E5        Eb3         A5          B5
I'll dance you through the flames!
     E5                    F#5
Your swollen eyes, they'll see again
A5                       C#5    B5  
dancing through till the bitter end
E5                 Eb3             A5                 
   I'll pick you up, give me your hand...
B5
Give me your hand.


[Solo]

E5  Eb3  A5  B5   x3
E5  Eb3  


e|-----------------------------------|
B|-----------------------------------|
G|--x-x------------------------------|
D|--x-x------------------------------|  x2
A|--x-x--7-7-7-7--7-7-7--7-7-7--7-7--|
E|--x-x--5-5-5-4--4-4-5--5-5-4--4-4--|


[Bridge]
(strum once)

              E5       Eb3     A5            
I'll pick you up, give me your hand
     E5        Eb3         A5      
I'll dance you through the flames!
     E5                    F#5
Your swollen eyes, they'll see again
A5                       C#5    B5  
dancing through till the bitter end
E5                 Eb3             A5       B5             
     I'll pick you up, give me your hand...


[Chorus]

              E5       Eb3     A5            
I'll pick you up, give me your hand
     E5        Eb3         A5          B5
I'll dance you through the flames!
     E5                    F#5
Your swollen eyes, they'll see again
A5                       C#5    B5  
dancing through till the bitter end
E5               Eb3              A5                 
   I'll pick you up, give me your hand...
B5
Give me your hand.


[Outro]

E5  Eb3  A5  B5   x3
E5  Eb3  

e|-----------------------------------|
B|-----------------------------------|
G|--x-x------------------------------|
D|--x-x------------------------------|  x2
A|--x-x--7-7-7-7--7-7-7--7-7-7--7-7--|
E|--x-x--5-5-5-4--4-4-5--5-5-4--4-4--|

A5

Suggest correction
Creating personal tab
Creating personal tab
You can edit any tab online and save it as your Personal.

You can edit, replace or remove any tab part or add personal notes – all changes will be seen only by you.

Personal tabs can be accessed anytime from any device, even offline.
Learn more »
Give kudos to tab author, rate the tab!
1 2 3 4 5
comments
print report bad tab
guest
You may want to rate the tab now too:
select rating
Wanna post a correction for this tab? Suggest correction