Oops, an error
Loading. Please wait.

Needles chords

214 views 18 this week
no commentswrite comment
1 2 3 4 5
2 more votes to show rating
add to favorites
×
Save as Personal and add changes to this tab that will be seen only by you. Learn more ›
×
You can save this tab as Personal to edit and correct it or add notes. All changes will be seen only by you. Learn more »
launch autoscroll
font size
0
reset
transpose
0
reset
simplify chords
display chords
guitar tuner
edit
Autoscroll
slow
fast
+/-
esc
set tempo
stop
Strumming
There is no strumming pattern for this song yet. and get +5 IQ
MIGRE LE TIGRE - Needles

Capo on 6th fret


    G    D   Em7 Cadd9 G/B   A4  G/F#
e|--2----2----3----3----3----3----3-----|
B|--2----3----3----3----3----3----3-----|
G|--0----2----0----0----0----2----0-----|
D|--0----0----2----2----0----2----0-----|
A|--2---------2----3----2----0----x-----|
E|--3---------0-------------------2-----|


[Intro]
e|----------3----------------3--------|
B|------3-----3---3------3-----3---3--|
G|----0---0-----0------0---0-----0----|
D|--0----------------0----------------| play x4
A|------------------------------------|
E|------------------------------------|

e|----------3----------------3--------|----------3----------------3--------------|
B|------3-----3---3------3-----3---3--|------3-----3---3------3-----3---3--------|
G|----0---0-----0------0---0-----0----|----0---0-----0------0---0-----0----------|
D|------------------------------------|--0----------------0----------------------| play x4
A|--2----------------3----------------|------------------------------------------|
E|------------------------------------|------------------------------------------|


e|----------3----------------3--------|----------3----------------3--------------|
B|------3-----3---3------3-----3------|------3-----3----------3-----3---3--------|
G|----0---0-----0------0---0-----0----|----0---0-----0------0---0-----0----------|
D|---------------------------------0--|----------------0-------------------------|
A|------------------------------------|------------------------------------------|
E|--3----------------3----------------|--3----------------3----------------------|

                               h p    let ring
e|----------3----------------2-3-2---0--|----------3---------------------------|
B|------3-----3---3------3---------3----|------0-----0---0--------------0------|
G|----0---0-----0------2---2------------|----0---0-----0--------0-----0---0----|
D|-------------------0------------------|---------------------0-----0----------| play x2
A|--------------------------------------|-------------------3-----2------------|
E|--3-----------------------------------|--0-----------------------------------|


e|----------3--------------------|------------------------------------------------|
B|------3-----3-------------3----|--------------3-------------------0-------------|
G|----0---0-------------2-----2--|----------0-----0---0-----0-----0---0-----------|
D|----------------0---2---0------|----0---0---0-----0-----0-----0-----------------|
A|--------------2---0------------|--3---2---------------3-----2-------------------|
E|--3----------------------------|------------------------------------------------|

                                         play 2x
e|----------3--------3-3---3-3-2------|--3---3-3-3-3----3---3-3-3-3----|
B|------3-----3---3--3-3---3-----3----|--3---3-3-3-3----3---3-3-3-3----|
G|----0---0-----0----2-2---2-------2--|--0---0-0-0-0----0---0-0-0-0----|
D|-------------------0-0---0----------|--0---0-0-0-0----0---0-0-0-0-h--|
A|------------------------------------|--2---2-2-2-2----2---2-2-2-0-2--|
E|--0---------------------------------|--3---3-3-3-3----3---3-3-3-3----|


[Verse 1]

G       D                 Em7              Cadd9        G/B   G
    Palefaced I'm writing lines because of thoughts spinning around
          D                Em7           Cadd9   G/B     G
About the past present and future, and solutions not yet found
    A4    G      Cadd9 G/B   Em7    D                 G         G
How empty can one feel, on a train, just leaving your city...
G        G/F#             Em7                Cadd9  G/B     G
    This place reminds at times when we were always side by side
           D                 Em7                   Cadd9   G/B     G
We used to share present and future, and there was nothing left to hide.
    A4      G     Cadd9 G/B   Em7    D                 Cadd9         Cadd9
Now tell me how to feel, on a train, just leaving your city..., your city



[Chorus]

     D               Em7         Cadd9
When minutes grow to hours and a day feels like a year
     D                Em7             Cadd9
When sweet turns into sour there's no melody to hear
      D       Em7   Cadd9                 D                 Em7   Dsus4 D Dsus2  Cadd9   G
These needles in my nails, they seem to replace a kiss from you...



[Verse 2]

G           G/F#             Em7               Cadd9     G/B    G
    I'll be waiting till the end, to walk this path with you my dear
           D                   Em7             Cadd9     G/B      G
You're the best thing that has happened, and I wish that you were here
       A4      G          Cadd9 G/B     Em7         D            Cadd9       Cadd9
Please tell me you're not sure that you leave, from now until forever..., forever...



[Chorus]

     D               Em7         Cadd9
When minutes grow to hours and a day feels like a year
     D                Em7             Cadd9            
When sweet turns into sour there's no melody to hear
      D       Em7   Cadd9                 D       Em7       Cadd9
These needles in my nails, they seem to replace a kiss from you...

G     G/F#     Em7       Cadd9
G     G/F#     Em7       Cadd9


[Bridge]
(strum once)

          D              Em7          Cadd9
It's like facing darkest hours as all brightness turns to black
    D                 Em7            Cadd9
I'm stuck here on low power and cold shivers on my back


(Intro Picking) 

G/B      G/C       G       G
G/B      G/C       G       G


[Chorus]

     G                           G/F#
When minutes grow to hours and a day feels like a year
     Em7                           Cadd9
When sweet turns into sour, all at once I am since here
     G             G/F#                  Em7     G         Cadd9
This needles in my nails, they seem to replace a kiss from you
G               G/F#            Em7             Cadd9
Oooh...         oooh...         oooh...     ooohoooh...
     G             G/F#                  Em7               Cadd9
This needles in my nails, they seem to replace a kiss from you
            G 
A kiss from you

[Outro]
(Intro Picking)

G        G/B        G/C             G       G
                Say do you feel it too?

G/B        G/C                G       G
           Do you feel it too?


            
            
Suggest correction
Creating personal tab
Creating personal tab
You can edit any tab online and save it as your Personal.

You can edit, replace or remove any tab part or add personal notes – all changes will be seen only by you.

Personal tabs can be accessed anytime from any device, even offline.
Learn more »
Give kudos to tab author, rate the tab!
1 2 3 4 5
comments
print report bad tab
guest
You may want to rate the tab now too:
select rating
Wanna post a correction for this tab? Suggest correction