Oops, an error
Loading. Please wait.

What A Place chords

88 views 3 this week
no commentswrite comment
1 2 3 4 5
3 more votes to show rating
add to favorites
×
Save as Personal and add changes to this tab that will be seen only by you. Learn more ›
×
You can save this tab as Personal to edit and correct it or add notes. All changes will be seen only by you. Learn more »
launch autoscroll
font size
0
reset
transpose
0
reset
simplify chords
display chords
guitar tuner
edit
Autoscroll
slow
fast
+/-
esc
set tempo
stop
Strumming
There is no strumming pattern for this song yet. and get +5 IQ
[Intro]

    Dmaj7                  D
e|--------2-------------|--------2-------------|
B|----2------2---2------|----3------3---3------|
G|------2------2-----x4-|------2------2-----x4-|
D|--0-------------------|--0-------------------|
A|----------------------|----------------------|
E|----------------------|----------------------|

    Dmaj7                  D
e|--------2-------------|--------2-------------|
B|----2------2---2------|----3------3---3------|
G|------2------2-----x4-|------2------2-----x4-|
D|--0-------------------|--0-------------------|
A|----------------------|----------------------|
E|----------------------|----------------------|


[Instrumental]

D/F#    G     Dmaj7  D  Dmaj7  D
D/F#    G     D 


[Chorus]

D        Dsus4               D          Dsus2
  What a nice place to raise children
D/F#                        G
  Forrest, field and countryside,
         A7sus4           D      Dsus4  D  Dsus2
Forrest, field and countryside.

D        Dsus4         D       Dsus2
  Fishes upsidedown in rivers
D/F#               G
  Everything is so alright,
     A7sus4        Dmaj7
Everything is so alright


[Instrumental]

Dmaj7   D    D5


[Verse 1]

Bm                               F#
First impressions always distort objectivity
       G                               D   A7sus4
With a surface clean the etiquette now praises
  Bm                                     F#
A landscape reigned by idiots, fucked by slavery and disease
  G                               A7sus4
a closer look, it's so satiric to me

N.C.       D            A7sus4          Bm             F#
I'll no longer care for problems aching someone else's chest
    G               D                    G                A7sus4
You suffocate these blackened days in consumption at it's best
     D            A7sus4           Bm           F#
I'll listen to my heart and I keep following my path
     G            A7sus4     Dmaj7
By myself this is all I ever had


[Instrumental]

Dmaj7  D   D5   D5


[Chorus]

D        Dsus4               D          Dsus2
  What a nice place to raise children
D/F#                        G
  Friendly cops, violent at night
         A7sus4            D      Dsus4  D  Dsus2  
friendly cops, violent at night

D           Dsus4           D          Dsus2
  A beating bat to save the country
D/F#                 G
  To keep everything alright
        A7sus4       Dmaj7
To keep everything alright


[Instrumental]

Dsus4  D5


[Verse 2]

     Bm                              F#
As I look around the corner counting people staring skies
        G                             D   A7sus4              
Full of emptyness, betrayal greed and fear
    Bm                               F#
I'm glad I found the point to follow just my own advice
           G                          A7sus4
Praise the emptyness, high I raise my beer

N.C.       D            A7sus4           Bm             F#
I'll no longer care for problems ache in someone else's chest
    G                  D                         G               A7sus4
You can't relate to mistakes we made. You're not better than the rest.
     D            A7sus4           Bm           F#
I'll listen to my heart and I keep following my path
     G             A7sus4            D    Bm
By myself and this society's dead to me.
     G             A7sus4            D    Bm
By myself and this society's dead to me.
     G             A7sus4            Dmaj7
By myself and this society's dead to me.


[Outro]

    Dmaj7                  D
e|--------2-------------|--------2-------------|
B|----2------2---2------|----3------3---3------|
G|------2------2-----x4-|------2------2-----x4-|
D|--0-------------------|--0-------------------|
A|----------------------|----------------------|
E|----------------------|----------------------|

    Dmaj7                  D
e|--------2-------------|--------2-------------|
B|----2------2---2------|----3------3---3------|
G|------2------2-----x4-|------2------2-----x4-|
D|--0-------------------|--0-------------------|
A|----------------------|----------------------|
E|----------------------|----------------------|
Suggest correction
Creating personal tab
Creating personal tab
You can edit any tab online and save it as your Personal.

You can edit, replace or remove any tab part or add personal notes – all changes will be seen only by you.

Personal tabs can be accessed anytime from any device, even offline.
Learn more »
Give kudos to tab author, rate the tab!
1 2 3 4 5
comments
print report bad tab
guest
You may want to rate the tab now too:
select rating
Wanna post a correction for this tab? Suggest correction