Oops, an error
Loading. Please wait.

Hacia La Libertad Chords

17 views 1 this week
no commentswrite comment
1 2 3 4 5
3 more votes to show rating
add to favorites
launch autoscroll
font size
0
reset
transpose
0
reset
display chords
guitar tuner
×
Best way to learn
"Hacia La Libertad"
Autoscroll
slow
fast
+/-
esc
set tempo
stop
Am

----12----12----12----12----12----12----12----12-----
-10----10----12----12----13----13----12----12--------
-----------------------------------------------------  x2 veces
-----------------------------------------------------
-----------------------------------------------------
-----------------------------------------------------


F

-------13--------------------------
----13----13-----------------------
-10-------------------------------- x8 veces
-----------------------------------
-----------------------------------
-----------------------------------


   Am
Después de trabajar
                      F
El sol no lo acompañó hoy
Hasta el final
Am
Secó su sudor
Buscó el descanso
       F
Que tardó mucho en llegar.

G               C
 Y su paso despacito lo llevó
G                     C
 Por el camino hacia arriba
                  D
Hasta poder encontrar algo para
   F
Animar los días que la soledad
     Am
No esté.


Desde su casa puede ver
Parte de AMERICA bajo sus pies
Siente un orgullo al respirar
Está mas fuerte va a poder
Seguir sembrando quizá
un día mas.


G               C
 Y su paso despacito lo llevó
G                     C
 Por el camino hacia arriba
                  D
Hasta poder encontrar algo para
   F
Animar los días que la soledad
     Am
No esté.

Tarareo en D-F-Am (continua con el punteo)


_________________________________________________________
Dedicado a la gente de Fusion de grupos de Pastoral!! :D
Gracias y espero que les haya gustado :)
Cualquier consulta a mi mail: 

Buscanos en FACEBOOK como:

PaStOrAL - (fusión de Grupos )


Saludossssss
Suggest correction
Give kudos to tab author, rate the tab!
1 2 3 4 5
comments
print report bad tab
guest
You may want to rate the tab now too:
select rating
Wanna post a correction for this tab? Suggest correction