Oops, an error
Loading. Please wait.

Cristo Te Exalto Tab

27 views 1 this week
no commentswrite comment
1 2 3 4 5
3 more votes to show rating
add to favorites
launch autoscroll
font size
0
reset
how to read this tab
guitar tuner
×
Best way to learn
"Cristo Te Exalto"
Autoscroll
slow
fast
+/-
esc
set tempo
stop
Q pex people


1:11                  1:18          1:26        1:31        1:39

e |------------------|-------------|------------|----------|--------------|
B |------------------|-------------|------------|----------|--------------|
G |------------------|-------------|------------|----------|--------------|
D |-7/9-7------------|-11-9-----7b-|------------|-11/9-7h9-|-77-77-x2-6b--|
A |------8/9-7-7h9-7-|-----12-9b---|-7-7-7/9-7b-|-----9----|--------------|
E |------------------|-------------|-5-5--------|----------|--------------|

                                                             |..pm..|


1:53          2:19          2:25      2:32           2:53


e |----------|-------------|---------|-------------|----------------------|
B |----------|-------------|---------|-------------|-9-11-7-6-------------|
G |----------|-------------|---------|-------------|-9-11-7-6-------------|
D |-77-77-76-|--7-7--9-7-6-|-7-7-7-6-|-7-7-77-6-76-|----------------------|
A |----------|-7-----------|---------|-------------|----------------------|
E |----------|-------------|---------|-------------|----------------------|
  |....pm....|  x x  x x x     x           xx   xx

3:05

e |-----------------------------------------------------------------------|
B |-----------------------------------------------------------------------|
G |----------9b---------6b-4b---------------------------------------------|
D |----7/9h11--9h11p9-7---------------------------------------------------|
A |-7/9----------------9--------------------------------------------------|
E |-----------------------------------------------------------------------|


La x significa nota muteada


Dudas y comentarios favor de mandarlos al mail

Si alguien quiere ponerla en guitar Pro pueden hacerlo, solo les pido q me
manden el archivo final
Thanx
Rocko
Suggest correction
Give kudos to tab author, rate the tab!
1 2 3 4 5
comments
print report bad tab
guest
You may want to rate the tab now too:
select rating
Wanna post a correction for this tab? Suggest correction