Oops, an error
Loading. Please wait.

Hoy Tengo Ganas De Ti Bass Tab

55 views 1 this week
no commentswrite comment
1 2 3 4 5
3 more votes to show rating
add to favorites
launch autoscroll
font size
0
reset
guitar tuner
Autoscroll
slow
fast
+/-
esc
set tempo
stop
Help us to improve Ultimate-Guitar.com Take our survey!
×
Esta cancion esta bien padre
me facino
al principio parecia facil
pero se va complicando en
la segunda estrofa
el bajo empieza en...
Intro 00:13
E|--------|----|
A|--------|-4--|
D|--4-2-0-|----|
G|--------|----|

Fuiste ave
E|--2-0---|-----5-|-4-2-------|-----5-|----|----|----------|
A|------2-|---5---|-------5-2-|---5---|-22-|-44-|-4-5-7-4--|
D|--------|-2-----|-----4-----|-2-----|----|----|----------|
G|--------|-------|-----------|-------|----|----|----------|

Quiero en tus
E|--2-------|---------|-----5-|-5544-|-2---|-----|-----|----------|
A|--------2-|-2-4-5-2-|---5---|------|-----|-----|---4-|-4-5-7-4--|
D|----2-0---|---------|-2-----|------|---4-|-4-2-|-0---|----------|
G|----------|---------|-------|------|-----|-----|-----|----------|

Quiero en tus
E|----------|---------|-----5-|-5544-|-2---|-----|------|
A|--------2-|-2-4-5-2-|---5---|------|-----|-----|---4--|
D|--4-2-0---|---------|-2-----|------|---4-|-4-2-|-0----|
G|----------|---------|-------|------|-----|-----|------|

iiiiiii
E|--------|----|
A|--------|-4--|
D|--4-2-0-|----|
G|--------|----|

No hay nada
E|--------2-|----|----------|-----|------|-----|----5--|
A|-----4-4--|--2-|-------2--|-7---|-7----|-7---|-7-7---|
D|--44--4---|-4--|-4--4---4-|--9--|--9-9-|--97-|--7----|
G|----------|----|--44------|---9-|---9--|-----|-------|

Hoy busco
E|------|--------|-----|-----|-----|---------|----5-|
A|------|------4-|-----|-4-2-|-----|-9-7-----|-7-7--|
D|--234-|-2h4-4--|-420-|-----|-4-2-|------9--|--7---|
G|------|--------|-----|-----|-----|-----9-9-|------|

llenarme de ti
E|-------|--77-|------|--99-|----------|
A|--7-7--|-7---|-7--9-|-9---|-4-5-7-4--|
D|---7-7-|-----|--79--|-----|----------|
G|-------|-----|------|-----|----------|

Quiero en tus
E|--2---------|---------|-----5-|-5544-|-2---|-----|-------|----------|
A|----------2-|-2-4-5-2-|---5---|------|-----|-----|---454-|-4-5-7-4--|
D|---4-2-20---|---------|-2-----|------|---4-|-4-2-|-0-----|----------|
G|------------|---------|-------|------|-----|-----|-------|----------|

Quiero en tus
E|-------------|---------|------5-|-5544-|-2---|-----|-------|----------|
A|-----------2-|-2-4-5-2-|----5---|------|-----|-----|---234-|-4-5-7-4--|
D|--44-2-200---|---------|-2-2----|------|---4-|-4-2-|-0-----|----------|
G|-------------|---------|--------|------|-----|-----|-------|----------|

Solo de guitarra
E|------------|---------|--------55-|-5544-|-2---|-----|-------|---------|
A|----------2-|-2-4-5-2-|----5-54---|------|-----|-----|---454-|-4-5-7-4-|
D|-44-2-20-0--|---------|-2-2-------|------|--4--|-4-2-|-0-----|---------|
G|------------|---------|-----------|------|-----|-----|-------|---------|

Quiero en tus
E|--2---------|-----|-------|---------|-------55-|-5544-|
A|------------|---7-|-5-4-2-|-2-4-5-2-|----5-54--|------|
D|----11------|-9---|-------|---------|-2-2------|------|
G|-------11-9-|--9--|-------|---------|----------|------|

E|--2-----|-----|-------|----------|
A|--------|-----|---454-|-4-5-7-4--|
D|----4-2-|-4-2-|-0-----|----------|
G|--------|-----|-------|----------|
atte. miauricio gatolar
Suggest correction
Give kudos to tab author, rate the tab!
1 2 3 4 5
comments
print report bad tab
guest
You may want to rate the tab now too:
select rating
Wanna post a correction for this tab? Suggest correction