Oops, an error
Loading. Please wait.

Dos Vagabundos Tab

22 views 1 this week
no commentswrite comment
1 2 3 4 5
3 more votes to show rating
add to favorites
launch autoscroll
font size
0
reset
how to read this tab
guitar tuner
Autoscroll
slow
fast
+/-
esc
set tempo
stop
Help us to improve Ultimate-Guitar.com Take our survey!
×
Dos Vagabundos

Es una buena rola de miguel,
NO se USA capo como dice la version anterior,
estos son los tonos originales. Chequen bien los tiempos
y el arpegio para que entiendan bien el tab. Cualquier duda,
comentario o sugerencia, pueden ponerse en contacto a mi correo.
ruben_rosiles@

Intro
       E           E           E          Cuando no quieras
e--------2--|--------0--|--------2--|--------0--|
B----0------|----0------|----0------|----0------|
G--1---1----|--1---1----|--1---1----|--1---1----|
D-----------|-----------|-----------|-----------|
A-----------|-----------|-----------|-----------|
E-----------|-----------|-----------|-----------|

Volaaar,
       E
e--------2--|
B----0------|
G--1---1----|
D-----------|
A-----------|
E-----------|

     Porque no hay viento a favooor,
      E                       F#m
e--------0--|-------------------0-----------|
B----0------|------------------2------------|
G--1---1----|-----------------2-------------|
|-----------|----------------2--------------|
A-----------|-------------------------------|
E-----------|---------------2---------------|


     Cuando se escape la luuuna,
       F#m                A 
e------0---|--------------------2--|
B-----2----|-----------------------|
G----2-----|----------------4------|
D---2------|------------------2----|
A----------|--------------0--------|
E--2-------|-----------------------|

   Del bolso del pantalooon.
       Bm                E
e--------2-|------------------2--|
B----------|--------------0------|
G------4---|------------1---1----|
D----4-----|---------------------|
A--2-------|---------------------|
E----------|---------------------|

   Cuando te canses de andaaar,
       E                   Em+(rasgueo)
e--------0--|--------------0---|
B----0------|--------------0---|
G--1---1----|--------------4---|
D-----------|--------------2---|
A-----------|--------------2---|
E-----------|--------------0---|


                  F#m
bajo la ruta del soool,

                   A 
 Cuando la velocidaaad,
Bm                        Em 
   te haga saltar del vagooon,
Em 
Y si algún día descubreees,
                         F#m
que el mundo no es un balooon

                    A 
Si juegas al escondiiite,
Bm                       C#7
   y se te esconde el amooo?


F#m       A 
Ooo?    ?ooor?


Interlude

     E  F#m  A   Bm   Em 

Em 
Y si cubrieran las nubeees,
                     F#m
el cielo de la ilusióoon,
                   A 
Aunque se parta el camiiino,
Bm                    Em 
   No se te parta la voooz.


Em 
Y si un día piensas que sufreees,
                       F#m
Recuerda bien mi cancióoon,
                       A 
Que es un tranvía la viiida,
Bm                      Em 
   que no conoce estacióoon,
Em                        A 
   Que es un tranvia la viiida
B7                     E
  que no conoce estacióoon. Oouuooohh!!

Acordes

 Em        F#m       A           Bm        C#7
e--0-     e--0-     e--0-       e--0-     e--4-
B--0-     B--2-     B--0-       B--0-     B--5-
G--4-     G--2-     G--4-       G--4-     G--4-
D--2-     D--2-     D--2-       D--4-     D--6-
A--2-     A--0-     A--0-       A--2-     A--4-
E--0-     E--2-     E--X-       E--X-     E--X-
Suggest correction
Give kudos to tab author, rate the tab!
1 2 3 4 5
comments
print report bad tab
guest
You may want to rate the tab now too:
select rating
Wanna post a correction for this tab? Suggest correction