Oops, an error
Loading. Please wait.

El Chavo Del Ocho Tab

646 views 3 this week
no commentswrite comment
1 2 3 4 5
3 more votes to show rating
add to favorites
launch autoscroll
font size
0
reset
how to read this tab
guitar tuner
×
Best way to learn
"El Chavo Del Ocho"
Autoscroll
slow
fast
+/-
esc
set tempo
stop
ACORDES:> D A7 G Em Bm7 F#m7 D#dim

Ésta es una rola bastante difícil. Pongo el riff principal y el resto
son acordes y variaciones de éste pedazo. Ojalá la puedan sacar ya que
está increíble. Lleva capo en el 2do traste.

ACORDES: D:     xx0232  D/C#:  x4x232
         A7:    x02020  D/B:   x2x232
         G:     320033  G/F#:  2x0033
         Em:    022000  E7/G#: 4x0430
         Bm7:   x24232  G/B:   x2x033
         F#m7:  242222  A7/C#: x4x055
         D#dim: xx1212

E||--5-7-5---5-7-5---3-5-3---3-5-3---|--2-3-2---2-3-2---0-----------|
B||--0-----0-------0-------0-------0-|--------0-------0----3--2--3--|
G||----------------------------------|------------------------------|
D||--0---------------0---------------|--0---------------------------|
A||----------------------------------|------------------0-----------|
E||----------------------------------|------------------------------|


Riff 1 - Bajos
--------3-------3-------0-------0-|----------------3-------5-------0-|
------3-------3-------0-------3---|--------2-----3-------5-------2---|
----0-------0-------0-------4-----|------0-----0-------0-------0-----|
----------------------------------|----2-----------------------------|
----------------------------------|--0-------2-------4-------0-------|
--3-------2-------0-------4-------|----------------------------------|


                                rIFF 2- BAJOS EN D

--------3----------------------|--0-2--------2---------2---------|
------3----3---3-----3-2-0-----|--3---3--------3-----3---------2-|
----0--------0-----2--------2--|--2--------2-------2---------0---|
-------------------------------|--0------------------------2-----|
-----------------0-------------|--------4--------2-------0-------|
--3----------------------------|---------------------------------|


---------3-2-0------------0-----|-------0-2-0-------------3-2-0-----|
-------3-------3-2----2-3---3-2-|--3----------3---3-----3-------3---|
-----0-----------0--------------|-----2---------2-----2-----------2-|
-----------------2--2-----------|--0----------------1---------------|
-----------------0--------------|-----------------------------------|
--3-----------------------------|-----------------------------------|


---------3-2-0------------0-----|----------2--------------0--|----||
-------3-------3-2----2-3---3-2-|--3----3-------3----3-------|----||
-----0-----------0--------------|-----2------------2----2----|----||
-----------------2--2-----------|--0------------0------------|----||
-----------------0--------------|------------0------------0--|----||
--3-----------------------------|----------------------------|----||


D              D/C#
Fuiste más que prólogo

D/B              A7
sinopsis de mi infancia que


Riff 1 - pongo los acordes, pero aqui va la parte de los bajos.

G         G/F#  Em     E7/G#   A7  G/B - A7/C# - A7
relata el plano rostro del   televisor

G         A7
Para demostrarme,

RIFF 2 - BAJOS EN D

          D    D/C# D/B    A7   G
que hasta la felici dad puede caber

       A7           D
en una torta de jamón...

LAS ESTROFAS QUE SIGUEN SON EXACTAMENTE IGUALES.
PONGO LOS ACORDES DEL CORO PARA QUE NO SE PIERDAN.


En el tendedero está
colgada una esperanza desteñida,
que no seca con la luz del sol
y el Chavo del Ocho
se la pone cada noche
aunque le escurran gotas
de desilusión...


CORO

G
Será qué

A7                   Bm7
 lo que parecen unas pecas,

F#m7               G
són tan sólo las estrellas

A7                 D - D#dim
que la luna le pintó...

G
Será qué

A7                   Bm7
ahora te veo como un espejo,

F#m7               G
tu barril es mi guitarra

A7                       D
y esta vida se me chispoteó...

EL RESTO DE LA CANCIÓN VA EXACTAMENTE IGUAL

Y con la esperanza
de contarte mis hazañas te escribí,
sin omitir mi mala redacción
Pero aquel cartero
por desgracia tropezó con la fatiga
y nunca dió con tu buzón...

Me parece verte equilibrando aquella escoba
trasquilada, de pasearse por el corredor
y de tus puntadas, germinaron carcajadas que
reviven cuando invierto el curso del reloj...

Será qué
lo que parecen unas pecas,
són tan sólo las estrellas
que la luna le pintó...
Será qué
ahora te veo como un espejo,
tu barril es mi guitarra
y esta vida se me chispoteó...
Será qué
lo que parecen mis ojeras
son tán sólo la pintura
de los labios de la luna,
que una noche me besó...


Yo sé que de plano si está medio complicada y sobre todo
entender si ni yo me entiendo pero si quieren el archivo
midi que hice de esta canción escríbanme a mi correo:
iseeyouinthedark@    suerte!!
Suggest correction
Give kudos to tab author, rate the tab!
1 2 3 4 5
comments
print report bad tab
guest
You may want to rate the tab now too:
select rating
Wanna post a correction for this tab? Suggest correction