Oops, an error
Loading. Please wait.

Por Si No Te Vuelvo A Ver Tab

version 2
version 2

Whole song

199 views 1 this week
no commentswrite comment
1 2 3 4 5
3 more votes to show rating
add to favorites
launch autoscroll
font size
0
reset
how to read this tab
guitar tuner
×
Best way to learn
"Por Si No Te Vuelvo A Ver"
Autoscroll
slow
fast
+/-
esc
set tempo
stop
Es un cover de Miguel Inzunza.
La tablatura del inicio es de esta versión:


e|--------x--------|
B|--------x--------|
G|--------x--------| Significa apagar el sonido de las cuerdas con la
D|--------x--------| palma de la mano.
A|--------x--------|
E|--------x--------|


Inicio:
e|------------------x--------x------0--x--------------0--x--------x-----0----|
B|---------------0--x-----0--x---------x--4----0-0--0----x--0-----x--0-------|
G|------------------x--------x---------x--------1---2----x--2--2--x--2-------|
D|------2-4-4/6-----x-4------x---2-----x-----------------x--2-2---x--2-3-----|
A|--2h4-------------x--------x---------x-----------------x--------x----------|
E|----------0-------x-0-0----x---0-0---x--0--0------2----x--2-----x--2-------|

e|---------------0-----------------x------5--4-----2--0-------x--0--------0--|
B|--0----0/1/0---------0/2/0----0--x------------------0-------x--0--------0--|
G|--2----------2------2-----2---2--x--2/6----4-----2--1----2--x--1---1----2--|
D|--2-2--------------2--------2----x---------------------2----x----2---2--2--|
A|-----------------0----------0----x--0---------0-------------x--0--------2--|
E|--2------------------------------x--------------------------x-----------0--|

     Verso I:

  E
Se hizo gigante ese olor a manzana
  F#m
Que dejó tu piel
  A
Y como haciéndome burla el destino
  E
No te eh vuelto a ver

  E
No tengo aliados librando esta guerra
  F#m
Me quedé con sed
  A
Vaya traición me jugó la impaciencia
        E
Por un sueño que alcancé

     CORO

         A       B                  G#m      D#m
Sobre papel declaro que te extraño cada amanecer
           A       B                      G#m        D#m
Te haré saber qué lento corre el tiempo lejos de tu piel
          A                            B
Haré que sepas de algún modo que te quiero
           E
Por si no te vuelvo a ver

Intermedio

La misma secuencia de acordes...


     Verso II:

  E
Cada recuerdo que sale al encuentro
  F#m
De mi corazón
  A
Deja grabado tu nombre en  mi cuerpo
  E
Y en cada canción

  E
No le pensaba decir ni al espejo
  F#m
Lo que te esperé
  A
Pero ya ves te confieso que muero
          E
Por que vuelvas otra vez

     CORO

         A      B                   G#m      D#m
Sobre papel declaro que te extraño cada amanecer
          A         B                      G#m       D#m
Te haré saber que lento corre el tiempo lejos de tu piel
            A                           B
Haré que sepas de algún modo que te quiero
                  E
Por si no te vuelvo a ver

       A       B                    G#m      D#m
Sobre papel declaro que te extraño cada amanecer
       A          B                     G#m          D#m
Confesaré que un beso tuyo vale más que mil de otra mujer
           A                             B
Haré que sepas de algún modo que te quiero
                  E
Por si no te vuelvo a ver
            A                          B
Haré que sepas de algún modo que te quiero
                    E       A
Por si no te vuelvo a ver


                      El final de la canción también es un pedazo del inicio.

Suerte y saludos...
Suggest correction
Give kudos to tab author, rate the tab!
1 2 3 4 5
comments
print report bad tab
guest
You may want to rate the tab now too:
select rating
Wanna post a correction for this tab? Suggest correction