Oops, an error
Loading. Please wait.

Mi Diosa Humana Tab

version 2
version 2

Whole song

111 views 1 this week
no commentswrite comment
1 2 3 4 5
3 more votes to show rating
add to favorites
launch autoscroll
font size
0
reset
how to read this tab
guitar tuner
Autoscroll
slow
fast
+/-
esc
set tempo
stop
Help us to improve Ultimate-Guitar.com Take our survey!
×
e ---1--1--1--2--2--2--3--3--3--4----------------------
B ---2--2--2--4--4--4--5--5--5--6----------------------
G -----------------------------------------------------
D -----------------------------------------------------
A -----------------------------------------------------
E -----------------------------------------------------

e ---2/5--4--2---------------2--5--4h5--2--0--2--2/4---
B --------------3--2h3----2----------------------------
G -----------------------------------------------------
D -----------------------------------------------------
A -----------------------------------------------------
E -----------------------------------------------------

e ---4-4-4-5-7-5-4------------|--2-----------2---------
B -----------------7-5--------|--3--5--3--5--3---------
G ---------------------7-6-4--|-----6--4--6------------
D ----------------------------|------------------------
A ----------------------------|------------------------
E ----------------------------|------------------------

e ---2/5--5--5-----------------------------------------
B --------------5---2h3--2-----------------------------
G -----------------------------------------------------
D -----------------------------------------------------
A -----------------------------------------------------
E -----------------------------------------------------
Suggest correction
Give kudos to tab author, rate the tab!
1 2 3 4 5
comments
print report bad tab
guest
You may want to rate the tab now too:
select rating
Wanna post a correction for this tab? Suggest correction