Oops, an error
Loading. Please wait.

Que Me Puedas Amar Tab

71 views 1 this week
no commentswrite comment
1 2 3 4 5
3 more votes to show rating
add to favorites
launch autoscroll
font size
0
reset
how to read this tab
guitar tuner
×
Best way to learn
"Que Me Puedas Amar"
Autoscroll
slow
fast
+/-
esc
set tempo
stop
E|--8/9--9-9-9|9-11-12-11-9-12-5|5-5-9-7-7-9-11-9-7-11-4-
B|------------|-----------------|------------------------
G|--8/9--9-9-9|9-11-13-11-9-13-6|6-6-9-8-8-9-11-9-8-11-4-
D|------------|-----------------|------------------------
A|------------|-----------------|------------------------
E|------------|-----------------|------------------------

E|--4-5-6-7-5-4---5-4-----4------------------------------
B|--------------7-----7-5---7-5-4--7-5-4---5-4-----------
G|---------------------------------------6-----6-4/6/4-2-
D|-------------------------------------------------------
A|-------------------------------------------------------
E|-------------------------------------------------------

E|------------2-------|----2--7-5-4-4/5---------5-4-2-4--
B|------2-4-5---5-4/5-|--4---------------5---5-----------
G|--2-4---------------|4------8-6-5-5/6--6-6-6--6-4-2-4--
D|--------------------|--------------------7-------------
A|--------------------|----------------------------------
E|--------------------|----------------------------------

E|--------4-2-1-2--------|-2----------3-3-3-4------------
B|-4---4--4-2-1-2--2---2-|---5-4-5----4-4-4-5------------
G|-4-4-4--4-2-1-2--2-2-2-|-2----------3-3-3-4------------
D|---6---------------4---|---6-5-6-----------------------
A|-----------------------|-------------------------------
E|-----------------------|-------------------------------
Suggest correction
Give kudos to tab author, rate the tab!
1 2 3 4 5
comments
print report bad tab
guest
You may want to rate the tab now too:
select rating
Wanna post a correction for this tab? Suggest correction