Oops, an error
Loading. Please wait.

A Cada Rato Tab

version 1
version 1

Whole song

254 views 1 this week
no commentswrite comment
1 2 3 4 5
3 more votes to show rating
add to favorites
launch autoscroll
font size
0
reset
how to read this tab
guitar tuner
×
Best way to learn
"A Cada Rato"
Autoscroll
slow
fast
+/-
esc
set tempo
stop
                        E7                        A
e|--0-2-0-2-0-2-0-2-0-0-4-4--|--2-0-0-4-4--|--2-0-0-|
B|--2-3-2-3-2-3-2-3-2-0-5-5--|--3-2-0-5-5--|--3-0-2-|
G|---------------------------|-------------|--------|
D|---------------------------|-------------|--------|
A|---------------------------|-------------|--------|
E|---------------------------|-------------|--------|

                        E7                                      A
e|--0-2-0-2-0-2-0-2-0-0-4-4--|--7-7-7-5-5-4-4-5-5-4-4-2---------2-|
B|--2-3-2-3-2-3-2-3-2-0-5-5--|--9-9-9-7-7-5-5-7-7-5-5-3-2-3-2-0-2-|
G|---------------------------|----------------------------------2-|
D|---------------------------|----------------------------------2-|
A|---------------------------|------------------------------------|
E|---------------------------|------------------------------------|


Estos son los tonos que se utilizan en la cancion, las "x"
indican las cuerdas de los bajeos.

    [ch]A o A       [ch]E7[/ch] o E7[/ch]
E|-----5-------------0------|
B|-----5-------------5------|
G|-----6-------------7------|
D|---x-7----------- -6------|
A|---x-7-----------x-7------|
E|-----------------x-7------|

Nota: Recomiendo usar esos acordes para que suene igual que la
      canción original
Suggest correction
Give kudos to tab author, rate the tab!
1 2 3 4 5
comments
print report bad tab
guest
You may want to rate the tab now too:
select rating
Wanna post a correction for this tab? Suggest correction