Oops, an error
Loading. Please wait.

A Cada Rato Tab

version 2
version 2

Whole song

439 views 3 this week
no commentswrite comment
1 2 3 4 5
2 more votes to show rating
add to favorites
launch autoscroll
font size
0
reset
how to read this tab
guitar tuner
Autoscroll
slow
fast
+/-
esc
set tempo
stop
Help us to improve Ultimate-Guitar.com Take our survey!
×
LOS ASTERISCOS INDICAN EN
DONDE SE VA A REPETIR EL ARREGLO
EJEMPLO(*)LOS ACORDES ESTAN AL FINAL, SE UTILIZAN
TRES ACORDES

                       [ch]E7                     LA[/ch]
e|--0-2-0-2-0-2-0-2-0-0-4-4--|--2-0-0-4-4--|--2-0-0--|
B|--2-3-2-3-2-3-2-3-2-0-5-5--|--3-2-0-5-5--|--3-0-2--|
G|---------------------------|-------------|---------|
D|---------------------------|-------------|---------|
A|---------------------------|-------------|---------|
E|---------------------------|-------------|---------|

e|--------------------------------|
B|--------------------------------|
G|-2-2-1-1------------------------|
D|---------4-4-2-2-0-0------------|
A|---------------------4-4-2-2-0--|
E|--------------------------------|

                        [ch]E7                                 LA[/ch]
e|--0-2-0-2-0-2-0-2-0-0-4-4--|--7-7-7-5-5-4-4-2-2-1-1-2-2-1-1-------|
B|--2-3-2-3-2-3-2-3-2-0-5-5--|--9-9-9-7-7-5-5-3-3-0-0-3-3-0-0-3-2---|
G|---------------------------|--------------------------------4-2---|
D|---------------------------|--------------------------------------|
A|---------------------------|--------------------------------------|
E|---------------------------|--------------------------------------|

e|-------------------|
B|----2--------------|
G|----2--------------|
D|--4-2-4-2-0--------|
A|------------4-2-0--|
E|-------------------|


e|------------------------------------------5-|
B|------------------------------------------5-|
G|------------------------------------------6-|
D|-4-2---4-2---4-2-------------------------x7-|
A|-----4-----4-----4-0----4-5-5-7-5-4------x7-|
E|------------------------------------7-5-----|

[ch]A[/ch]
A cada rato miro tu retrato

     e|----------------------------|
     B|----------------------------|
     G|---------------7----------7-|(*)
     D|-7--6-5-4------4----------4-|
     A|----------7-5-x5-----4-5-x5-|
     E|--------------x5-5-7-----x5-|
   [ch]D[/ch]
a cada rato estoy pensando en ti

        e|-----------|
        B|-----------|
        G|--------9--|
        D|--------6--|(**)
        A|-5-6-7-X7--|
        E|-------X7--|
   [ch]E                     LA[/ch]
mi vida se a llenado de ilusiones,
        [ch]D7 RE#7 MI7[/ch]
      e|-0---0---0--|
      B|-3---4---5--|
      G|-5---6---7--| (***)
      D|-4---5---6--|
      A|-5---6---7--|
      E|------------|
            [ch]E                   LA[/ch]
palpitan ilusiones aqui dentro de mi

    e|-----------------------------------------5--|
    B|-----------------------------------------5--|
    G|-----------------------------------------6--|
    D|---4-6-7--4-2-0--------4-2--4-2--4-2----X7--|(****)
    A|-7--------------4-2-0-----4----4----4-0-X7--|
    E|--------------------------------------------|
        [ch]A[/ch]
Lo que hacen los amores cuando llegan(*)
    [ch]D[/ch]
mi pobre corazon se transformo(**)
   [ch]E                              LA[/ch]
no se si me estoy riendo o estoy llorando(***)
                     [ch]E                      LA[/ch]
y aunque nunca eh cantado te estoy cantando a ti(****)

   [ch]A                      [ch]E[/ch]                             LA[/ch]
A cada rato pienso en tu cariño y como un niño te busco a ti
                      [ch]E                             LA[/ch]
a cada rato miro tu retrato no cabe duda tu estas en mi

(REQUINTO)

        [ch]A[/ch]
Lo que hacen los amores cuando llegan(*)
    [ch]D[/ch]
mi pobre corazon se transformo(**)
   [ch]E                               LA[/ch]
no se si me estoy riendo o estoy llorando(***)
                     [ch]E                       LA[/ch]
y aunque nunca eh cantado te estoy cantando a ti(***)

  [ch]A                      [ch]E[/ch]                             LA[/ch]
A cada rato pienso en tu cariño y como un niño te busco a ti
                      [ch]E                             LA[/ch]
a cada rato miro tu retrato no cabe duda tu estas en mi


   [ch]A[/ch]   [ch]E[/ch]     [ch]D[/ch]
e|--5-|-0----|-----|
B|--5-|-5----|-----|
G|--6-|-7--9-|--7--|
D|-X7-|-6--6-|--4--|
A|-X7-|X7-X7-|-X5--|
E|----|X7-X7-|-X5--|
Suggest correction
Give kudos to tab author, rate the tab!
1 2 3 4 5
comments
print report bad tab
guest
You may want to rate the tab now too:
select rating
Wanna post a correction for this tab? Suggest correction