Oops, an error
Loading. Please wait.

Caballo De Patas Blancas Tab

146 views 1 this week
no commentswrite comment
1 2 3 4 5
2 more votes to show rating
add to favorites
launch autoscroll
font size
0
reset
how to read this tab
guitar tuner
×
Best way to learn
"Caballo De Patas Blancas"
Autoscroll
slow
fast
+/-
esc
set tempo
stop
intro;

                  A                       E7
e |-0-0----------------5-4--5-5-4--5--7-5-4--|
B |-1-1-1-0-----0------7-5--7-7-5--7--9-7-5--|
G |---------2-1---2--2-----------------------|
D |------------------------------------------|
A |------------------------------------------|
E |------------------------------------------|

                                     A      E7           A
e |---7-7--7-5-4-5-4----4-7-5--4-4-2-0----5-4-5--4-2-----0---|
B |-5-9-9--9-7-5-7-5--5-5-9-7--5-5-3-2--5-7-5-7--5-3-2-0-2---|
G |-6-----------------6--------------2--6----------------2---|
D |----------------------------------2-------------------2---|
A |----------------------------------------------------------|
E |----------------------------------------------------------|

                                                  A
e |-----------------------------------------------5---|
B |-----------------------------------------------5---|
G |-----------------------------------------------6---|
D |-4-2-0--------4-2-0---0-------4-2-0---2--------7---|
A |-------4-2-0--------4---4-2-0-------4----4-0---7---|
E |-----------------------------------------------5---|


   A
caballo de patas blancas
                    E7
con herraduras de acero

tu vaz a brincar las trancas
                      A
antes que salga el lucero
                  E7
y vaz a llevar en ancas
                     A
a la mujer que yo quiero
E7                   A
a la mujer que yo quiero


  A7                  D
yo se que tus pretendientes
                   E7
presumen de ser matones

el miedo que yo les tengo
                         A
lo traigo aqui en los talones
E7                       A
lo traigo aqui en los talones

  A
yo se que me andan buscando
                   E7
con ansias desesperadas

y yo que me estoy muriendo
                  A
por conocer tu manada
                E7
pa verlos agonizando
                      A
comiendo sangre empolvada
E7                    A
comiendo sangre empolvada

  A7                  D
yo se que tus pretendientes
                   E7
presumen de ser matones

el miedo que yo les tengo
                         A
lo traigo aqui en los talones
E7                       A
lo traigo aqui en los talones

                                   A
e |-5-4-0--4--2--0-----------------5-----|
B |-------5--3--2--2-0-------------5-----|
G |--------------------2-----------6-----|
D |----------------------4-2-4-2---7-----|
A |------------------------------4-7-----|
E |--------------------------------5-----|
Suggest correction
Give kudos to tab author, rate the tab!
1 2 3 4 5
comments
print report bad tab
guest
You may want to rate the tab now too:
select rating
Wanna post a correction for this tab? Suggest correction