Oops, an error
Loading. Please wait.

Catarino Y Los Rurales Tab

version 1
version 1

Whole song

90 views 1 this week
no commentswrite comment
1 2 3 4 5
3 more votes to show rating
add to favorites
launch autoscroll
font size
0
reset
how to read this tab
guitar tuner
Autoscroll
slow
fast
+/-
esc
set tempo
stop
Help us to improve Ultimate-Guitar.com Take our survey!
×
El rasgueo de la cacnión es asi

e|-------0-0---0--
B|------2--2---2--
G|-----2---2---2--
D|----2----2---2--
A|--0-------------
E|-----------0----

1er Bajo
rasgueo cuerda por cuerda
rasgueo sensillo
2do Bajo
rasgueo sensillo

   EMPEZAMOS

REQUINTO:

                 A                  E7              D             E7      
e|--5-5-5-4-2-0-2-0---0-0-0-2-4-5-7-5---5-5-5-5-7-5-7-4-4---4-5-4-5-4-4---2-4-2--
B|--7-7-7-5-3-2-3-2---2-2-2-3-5-7-9-7---7-7-7-7-9-7-9-5-5---5-7-5-7-5-5---3-5-3--
G|-------------------------------------------------------------------------------
D|-------------------------------------------------------------------------------
A|-------------------------------------------------------------------------------
E|-------------------------------------------------------------------------------
           A                                                   A
e|-----------------------------------------------------------------0-0---0--
B|-2-3-2-0--------------------------------------------------------2--2---2--
G|---------2--2-1------------------------------------------------2---2---2--
D|----------------4-2-0----------2-4-2-4-2--------2-4-2-4-2-----2----2---2--
A|----------------------4-2-0--4-----------4-0--4-----------4-0-------------
E|---------------------------------------------------------------------0----


A
Un domingo fue por cierto e|-------------
                          B|-------------
                          G|-------------
                          D|---2-4-2-----
                          A|-4-------4-0-
                          E|-------------
                 E7
bailaron tomaron vino e|-4-4--4-5-7--9--9---9-7-5-4-4--
                      B|-5-5--5-7-9-10-10--10-9-7-5-5--
                      G|-------------------------------
                      D|-------------------------------
                      A|-------------------------------
                      E|-------------------------------

                    D
levantaron cuatro muertos
        E7         A
que a matado, catarino. e|---------------------------------------
                        B|----------------------------2----------
                        G|----------------------------2----------
                        D|---2-4-2--------2-4-2-4-2---2-4-2------
                        A|-4-------4-0--4-----------4-------4-0--
                        E|---------------------------------------


A
Catarino y los rurales e|-------------
                       B|-------------
                       G|-------------
                       D|---2-4-2-----
                       A|-4-------4-0-
                       E|-------------
                 E7
se agarraron a balasos e|-4-4--4-5-7--9--9---9-7-5-4-4--
                       B|-5-5--5-7-9-10-10--10-9-7-5-5--
                       G|-------------------------------
                       D|-------------------------------
                       A|-------------------------------
                       E|-------------------------------
                 D
catarino echaba balas
        E7          A
y los rurales, cañonasos. e|-------------------------------------
                          B|--------------------------2----------
                          G|-----------2--------------2----------
                          D|---2-4-2-------2-4-2------2-4-2------
                          A|-4-------4---4-------4-0--4-----4-0--
                          E|-------------------------------------

A
Catarino les gritaba e|-------------
                     B|-------------
                     G|-------------
                     D|---2-4-2-----
                     A|-4-------4-0-
                     E|-------------
                      E7
cuando iba de cuesta arriba e|-4-4--4-5-7--9--9---9-7-5-4-4--
                            B|-5-5--5-7-9-10-10--10-9-7-5-5--
                            G|-------------------------------
                            D|-------------------------------
                            A|-------------------------------
                            E|-------------------------------
                      D
los balasos que me peguen
           E7          A
yo me los curo, cons saliba.


REQUINTO:

                 A                  E7              D             E7      
e|--5-5-5-4-2-0-2-0---0-0-0-2-4-5-7-5---5-5-5-5-7-5-7-4-4---4-5-4-5-4-4---2-4-2--
B|--7-7-7-5-3-2-3-2---2-2-2-3-5-7-9-7---7-7-7-7-9-7-9-5-5---5-7-5-7-5-5---3-5-3--
G|-------------------------------------------------------------------------------
D|-------------------------------------------------------------------------------
A|-------------------------------------------------------------------------------
E|-------------------------------------------------------------------------------
           A                                                   A
e|-----------------------------------------------------0-0---0--
B|-2-3-2-0--------------------------------------------2--2---2--
G|---------2--2-1------------------------------------2---2---2--
D|----------------4-2--------2-4-2--------2-4-2-----2----2---2--
A|--------------------4-0--4-------4-0--4-------4-0-------------
E|---------------------------------------------------------0----


A
Catarino les gritaba e|--5-5-5-4-2-0-2-0--
                     B|-------------------
                     G|-------------------
                     D|-------------------
                     A|-------------------
                     E|-------------------
                      E7
cuando iba de cuesta arriba e|-4-4--4-5-7--9--9---9-7-5-4-4--
                            B|-5-5--5-7-9-10-10--10-9-7-5-5--
                            G|-------------------------------
                            D|-------------------------------
                            A|-------------------------------
                            E|-------------------------------
                       D
aqui estoy pa´ que me coman
        E7                A
desgraciados, muertos de hambre. e|---------------------------------------
                                 B|----------------------------2----------
                                 G|----------------------------2----------
                                 D|---2-4-2--------2-4-2-4-2---2-4-2------
                                 A|-4-------4-0--4-----------4-------4-0--
                                 E|---------------------------------------

A
Ya con esta me despido e|-------------
                       B|-------------
                       G|-------------
                       D|---2-4-2-----
                       A|-4-------4-0-
                       E|-------------
                      E7
deshojando unos rosales  e|-4-4--4-5-7--9--9---9-7-5-4-4--
                         B|-5-5--5-7-9-10-10--10-9-7-5-5--
                         G|-------------------------------
                         D|-------------------------------
                         A|-------------------------------
                         E|-------------------------------
                  D
aqui termina el corrido
     E7              A
de catarino y los rurales.

            D                E7              A
e|--5-5-5-5-7-5-7-4-4---4-5-4-5-4-4---2-4-2--0--
B|--7-7-7-7-9-7-9-5-5---5-7-5-7-5-5---3-5-3--2--
G|-------------------------------------------2--
D|-------------------------------------------2--
A|-------------------------------------------0--
E|----------------------------------------------

Dudas: jorgernesto_

Saludos Cd. Obregón, Sonora
Suggest correction
Give kudos to tab author, rate the tab!
1 2 3 4 5
comments
print report bad tab
guest
You may want to rate the tab now too:
select rating
Wanna post a correction for this tab? Suggest correction