Oops, an error
Loading. Please wait.

Catarino Y Los Rurales Tab

version 2
version 2

Whole song

53 views 1 this week
no commentswrite comment
1 2 3 4 5
3 more votes to show rating
add to favorites
launch autoscroll
font size
0
reset
how to read this tab
guitar tuner
Autoscroll
slow
fast
+/-
esc
set tempo
stop
Help us to improve Ultimate-Guitar.com Take our survey!
×
Requinto
                 A                    E7
e |-------------------0--0-0-2-4-5-7--4---|
B |-5--5-5-3-2-0-2----2--2-2-3-5-7-9--5---|
G |-6--6-6-4-2-0-2------------------------|
D |---------------------------------------|
A |---------------------------------------|
E |---------------------------------------|

                  D             E7                     A
e |-4--4-4--7-5-4-5--5-5--4-5-4-2--2-2--0-0----------------|
B |-5--5-5--9-7-5-7--7-7--5-7-5-3--3-3--2-2-3--2-3-2-0-----|
G |----------------------------------------------------2---|
D |--------------------------------------------------------|
A |--------------------------------------------------------|
E |--------------------------------------------------------|

                                                  A
e |--------------------------------------------------|
B |--------------------------------------------------|
G |-1------------------------------------------------|
D |---4-2-0--------2-4--2-4-2--------2-4--2-4-2------|
A |---------4-0--4------------4-0--4------------4-0--|
E |--------------------------------------------------|


A
Un domingo fue por cierto
                        A
D |--0----------2-4-2------|
A |----4-2-0--4-------4-0--|
E |------------------------|

                  E7
bailaron tomaron vino
                                 E7
e |--4--4-4-4--5-6-7--7-7-7--6-5-4--|
B |--5--5-5-5--7-8-9--9-9-9--8-7-5--|
G |---------------------------------|
D |---------------------------------|
A |---------------------------------|
E |---------------------------------|

                    D
levantaron cuatro muertos
         E7       A
que a matado Catarino
                                             A
e|----------------------------------------------|
B|----------------------------------------------|
G|------------------------------2---------------|
D|---2-4-2--------2-4-2-4-2----2---4-2-4-2------|
A|-4-------4-0--4-----------4-0------------4-0--|
E|----------------------------------------------|


 A
Catarino y los rurales
                  E7
se agarraron a balazos
                 D
Catarino echaba balas
         E7        A
y los rurales cañonazos

 A
Catarino les gritaba
                        E7
cuando iba de cuesta arriba
                    D
los balasos que me peguen
           E7         A
yo me los curo con saliba


"EL REQUINTO DE ARRIBA"


A
Catarino les gritaba

e |-------------------|
B |--2--2-2-0---------|
G |-----------2-0-2---|

                        E7
brincando un cerco de alambre
                      D
aqui estoy pa que me coman
        E7               A
desgraciados muertos de hambre

 A
ya con esta me despido
                   E7
deshojando unos rosales

e |--4--4-4-4--5-5--4--4-4-4--5-5--4--|
B |--5--5-5-5--7-7--5--5-5-5--7-7--5--|
G |-----------------------------------|

                    D
aqui termina el corrido
        E7           A
de catarino y los rurales

e |-4--4-4--7-5-4-5--5-5--4-5-4-2--2-2--0-0----------------|
B |-5--5-5--9-7-5-7--7-7--5-7-5-3--3-3--2-2-3--2-3-2-0-----|
G |----------------------------------------------------2---|
D |--------------------------------------------------------|
A |--------------------------------------------------------|
E |--------------------------------------------------------|

los adornos se repiten, no mas fijate donde
Suggest correction
Give kudos to tab author, rate the tab!
1 2 3 4 5
comments
print report bad tab
guest
You may want to rate the tab now too:
select rating
Wanna post a correction for this tab? Suggest correction