Oops, an error
Loading. Please wait.

Collar De Guamuchil Tab

94 views 1 this week
no commentswrite comment
1 2 3 4 5
3 more votes to show rating
add to favorites
launch autoscroll
font size
0
reset
how to read this tab
guitar tuner
×
Best way to learn
"Collar De Guamuchil"
Autoscroll
slow
fast
+/-
esc
set tempo
stop
  Intro:


                             C7                        F
e|-5--8--8---6--8--8---10--6-6---5--6-6--5--6-6--8---5-5----------|
B|-6--10-10--8--10-10--11--8-8---6--8-8--6--8-8--10--6-6----------|
G|----------------------------------------------------------------|
D|----------------------------------------------------------------|
A|----------------------------------------------------------------|
E|----------------------------------------------------------------|

                            C7                          F
e|-5--8--8---5--6-6--8---10-10--10--12-12--10--8--8---6-5------|
B|-6--10-10--6--8-8--10--11-11--11--13-13--11--10-10--8-6------|
G|-------------------------------------------------------------|
D|-------------------------------------------------------------|
A|-------------------------------------------------------------|
E|-------------------------------------------------------------|

                       F            F             F            F
e|----------------------------------------------------------------|
B|-6-6-6-5-5----------------------------------------------5h6-------|
G|-----------7-5-----------5--7--5------5--7--5---------------------|
D|---------------8-7-5---7------------7-----------------------------|
A|---------------------8------------8-------------8------------8----|
E|-----------------------------------------------------------------|


                    C7
Con semillas de guamuchil

                       F
me puse hacerte un collar

                   C7
para decirte te quiero

                    F
no me vallas a olvidar

                   C7
a la orillita del rio

                  F
me puse a considerar


                  C7
el sol estaba callendo

                  F
cuando te lo regale

                    C7
dijiste que lindo siento

                       F
porque ahora si soy mujer

                 C7
tu tenias quince años

                    F
yo apenas los dieciseis
Suggest correction
Give kudos to tab author, rate the tab!
1 2 3 4 5
comments
print report bad tab
guest
You may want to rate the tab now too:
select rating
Wanna post a correction for this tab? Suggest correction