Oops, an error
Loading. Please wait.

La Tragedia De Rosita Tab

37 views 1 this week
no commentswrite comment
1 2 3 4 5
3 more votes to show rating
add to favorites
launch autoscroll
font size
0
reset
how to read this tab
guitar tuner
Autoscroll
slow
fast
+/-
esc
set tempo
stop
Help us to improve Ultimate-Guitar.com Take our survey!
×
usa A  y  E7
e |--5-----0x----|
B |--5-----5-----|
G |--6-----7-----|
D |--7-----6-----|
A |--7-----7-----|
E |--5-----7x----|


e |---------------4-5--5--4-4--------------------4--4---|
B |-5-5-7--5-7-7--5-7--7--5-5--7--5-5--3-5-5--7--5--5---|
G |-6-6-7--6-7-7---------------7--6-6--4-6-6--7---------|
D |-----------------------------------------------------|
A |-----------------------------------------------------|
E |-----------------------------------------------------|


e |----------------------------------0-2-2----------|
B |--------------5-5-2--3--3-3-------2-3-0-2-0------|
G |-------2-2-2--6-6-2--4--4-4---2-2-----------2----|
D |-2--2-------------------------2-2----------------|
A |-------------------------------------------------|
E |-------------------------------------------------|

e |-----------------------------------------------------|
B |-3-2--3-2-0------------------------------------------|
G |------------2--2-1-----------------------------------|
D |------------------4-2-0--------4-2-0---4-2-0---------|
A |------------------------4-2-0--------4-------4-2-0---| A
E |-----------------------------------------------------|


D |------------|
A |------------|
E |-0-2-4-5----|

A
A las orillas del rio
               E7
lavaba ropa Rosita

D |------------|
A |---4-6-7----|E7
E |-7----------|

ni el trabajo ni el hastío

G |------------|
D |---4-6-7----|
A |-7----------|  A
E |------------|
                  A
marchitaban su carita
                   E7
de todo aquel caserio
                   A
ella era la mas bonita


A
Los campesinos gritaban
                    E7
cuando la venian venir

y su amor se disputaban
                   A
por ella podian morir
               E7
todos ellos adoraban
                   A
aquella rosa de abril

G |------------|
D |---4-6-7----| A7
A |-7----------|
E |------------|

                      D
El tiempo asi trancurria
      A
como renacen las rosas
                    E7
pero aquel tragico dia
                     A
cambiaron mucho las cosas
                     E7
la tragedia es compañia
                   A
de las mujeres hermosas.


A
Aquel dia amanecio
                    E7
nublado en el firmamento

Rosita al rio bajo
                  A
llevando su cargamento
                    E7
un hombre se le acerco
                    A
trayendo un mal pensamiento


A
Rosita del alma mia
                    E7
le decia aquel ranchero

cuanto esperado este dia
                     A
pa decirte que te quiero
                      E7
ahora tienes que ser mia
                    A      A7
o en el intento me muero.


                   D
Debajo de aquel encino
     A
en ese lugar crecio
                  E7
aquel torvo campesino
                 A
de Rosita se burlo
                       E7
luego la hecho al remolino
                   A    A
y el rio se la llevo.
Suggest correction
Give kudos to tab author, rate the tab!
1 2 3 4 5
comments
print report bad tab
guest
You may want to rate the tab now too:
select rating
Wanna post a correction for this tab? Suggest correction