Oops, an error
Loading. Please wait.

Las Ciudades Tab

83 views 1 this week
no commentswrite comment
1 2 3 4 5
3 more votes to show rating
add to favorites
launch autoscroll
font size
0
reset
how to read this tab
guitar tuner
Autoscroll
slow
fast
+/-
esc
set tempo
stop
                  D
e|-------10-9--10-9---9--9--|
B|-10-12-12-10-12-10--10-10-|
G|-11-12--------------------|
D|--------------------------|
A|--------------------------|
E|--------------------------|

                  A7
e|--------------------------|
B|-10-10-12-10-12-10--10-10-|
G|-11-11-12-11-12-11--11-11-|
D|--------------------------|
A|--------------------------|
E|--------------------------|


e|------------------------------------|
B|-10-8-10-8-10-8--8-8---12--10--8--7-|
G|-11-9-11-9-11-9--9-9--12--11--9---7-|
D|------------------------------------|
A|------------------------------------|
E|------------------------------------|

                     D
e|---------------------|
B|--5--3--2--0---------|
G|-6--4--2--0---2--0---|
D|-------------4--2--0-|
A|---------------------|
E|---------------------|

         D
e|---------|
B|---------|
G|---------|
D|---------|
A|-0-2-4-5-|
E|---------|

          D  Em
Te vi llegar
      A7
y sentí la presencia
                  D   D7
de un ser desconocido
          G
te vi llegar
      D7
y sentí lo que nunca
                G
jamás había sentido

           A7
Te quise amar

y tu amor no era fuego
        D
no era lumbre,
                               A7
las distancias apartan las ciudades
                               D
las ciudades destruyen las costumbres

           D  Em
Te dije adios
     A7
y pediste que nunca
                  D   D7
que nunca te olvidara,
           G
te dije adios
      D7
y sentí de tu amor
                       G
otra vez la fuerza extraña.

               A7
Y mi alma completa
                  D
se me cubrió de hielo
               A7
y mi cuerpo entero
              D
se llenó de frío

            A7
Y estuve a punto
               D
de cambiar tu mundo,
               A7
de cambiar tu mundo,
              D
por el mundo mío.
Suggest correction
Give kudos to tab author, rate the tab!
1 2 3 4 5
comments
print report bad tab
guest
Wanna post a correction for this tab? Suggest correction