Oops, an error
Loading. Please wait.

Los Dos Amantes Chords

75 views 1 this week
no commentswrite comment
1 2 3 4 5
3 more votes to show rating
add to favorites
launch autoscroll
font size
0
reset
transpose
0
reset
display chords
guitar tuner
Autoscroll
slow
fast
+/-
esc
set tempo
stop
Help us to improve Ultimate-Guitar.com Take our survey!
×
Saludos
Espero les agrade la transcripcion y sobre todo que les guste este estilo
de musica.

R1

 |----0-0-0-0-0-0--2-2-2-0-0-0----0-0-0-0-0-0-2-2-0-0-3-2-0-0-0---
 |----2-2-0---2-2--3-3-3-2-2-0----0-0-0---0-2-3-3-0-0-5-3-2-0-----
 |----------2---------------------------2---------------------2---
 |----------------------------------------------------------------
 |----------------------------------------------------------------
 |----------------------------------------------------------------


R2

 |----0-0-0-0-0-0-0-0-0-0-0-0-0-0-0-0-0-0-0-0----0-0-0--0-2-2-----
 |----2-2-2-0-0-----2-2-0-0-----2-2-0-0-----0-0--0-0-0--2-3-3-----
 |--------------2-2---------2-2---------2-2---1-------------------
 |----------------------------------------------------------------
 |----------------------------------------------------------------
 |----------------------------------------------------------------


R3

 |--0-0-3-2-0-0-0------2-0-----------------------------------------
 |--0-0-5-3-2-0------2----3-2-0------------------------------------
 |--------------2---------------2----------------------------------
 |----------------------------------2-0---2-0------2-2-0---2-0-----
 |--------------------------------------4-----4-0--------4-----4-0-
 |-----------------------------------------------------------------
                                  |______________________________|
                                                  |
                                                  |
  ------------------------------------------------.------------------
 |En esta parte se puede agregar mas adornos, segun como les guste. |
 |Acabando los adornos de bajo terminas con las primeras cuerdas.   |
 |Podrias terminar con: 1-0, 2-2.                                   |
  ------------------------------------------------------------------

A
Entre cortinas blancas

          E
y azules rejas

              D
estaban dos amantes

 E        A
dando se quejas


y se decian

        E
y se decian

                 D
que solo con la muerte

 E        A
se olvidarian

  -----------
 |  Adorno   |
  -----------

A
Sal niña a tu ventana

            E
no seas ingrata

             D
sal ha escuchar

E        C
mi serenata


A serenata

                   E
de un ser que te adora

                 D
no ves que este hombre

 E            A
por tu alma llora

     ---------
    | R1 - R3 |
     ---------

A
Dicen que no se sienten

           E
las despedidas

                     D
dile al que te lo cuente

 E             A
que eso es mentira


mentira ingrata

                   E
de un ser que te adora

            D     E
cuando se quiere hasta

     A
se llora

 -----------
|  Adorno   |
 -----------

A
Cual de los dos amantes

           E
sufre mas penas

           D
El que se va

E             A
o el que se queda


El que se queda

           E
se queda llorando

            D
y el que se va

    E       A
se va suspirando


 |---------------------0---
 |---------------------0---
 |---------------------2---
 |-----4--2--0---------2---
 |---4---------4-2-0---2---
 |--------.------------0---
          |
          |_______Esta ultima parte es de mi adaptacion xD


En las partes que dice ADORNO puedes poner el "R3"
o el que gustes.
.......
Dudas, comentarios, preguntas: rot_wannabie@
Saludos al "Jefe" en la palma, a mi jefecita y
a todos los integrantes del Grupo Oyantay (Anteriormente Macasti).
Suggest correction
Give kudos to tab author, rate the tab!
1 2 3 4 5
comments
print report bad tab
guest
You may want to rate the tab now too:
select rating
Wanna post a correction for this tab? Suggest correction