Oops, an error
Loading. Please wait.

Mi Amigo El Borracho Tab

110 views 1 this week
no commentswrite comment
1 2 3 4 5
3 more votes to show rating
add to favorites
launch autoscroll
font size
0
reset
how to read this tab
guitar tuner
Autoscroll
slow
fast
+/-
esc
set tempo
stop
Help us to improve Ultimate-Guitar.com Take our survey!
×
LA CANCION ESTA ARMONIZADA EN LA MAYOR.

e<--4-4-4-7-5-4-5-4--4-4-4-5-4-4-2-0-->
B<--5-5-5-9-7-5-7-5--5-5-5-7-5-5-3-2-->
G<------------------------------------>
D<------------------------------------>
A<------------------------------------>
E<------------------------------------>

e<--4-4-4-4-4-2-0---4-4-4-4-4-2-0--------0-2-0-0----->
B<--5-5-5-5-5-3-2-3-5-5-5-5-5-3-2-3--3-3-2-3-2-2-3-2->
G<----------------4---------------4--4-4---------4-2->
D<--------------------------------------------------->
A<--------------------------------------------------->
E<--------------------------------------------------->


ME LO ENCONTRE EN LA CANTINA

ERA UN BORRACHO MUY TRISTE

SE LE NOTABA EL DOLOR 

DE LO QUE CAUSA UNA ESPINA 

LA BALA EN EL CORAZON.


SE LE NOTABA EL PESAR

YO LO VI MUY PENSATIVO

SI ADIVINABA EL MOTIVO

POR EL QUE ESTABA AFLIGIDO

LO HACIA A PUNTO DE LLORAR.


SENTADO FRENTE A LA BARRA

CANTABA CON SU GUITARRA

DE ESAS CANCIONES QUE LLEGAN

QUE TE DAN SED DE CERVEZA

Y TE DESGARRAN EL ALMA.


Y LA GENTE LO ESCUCHABA

Y EL CANTINERO SERVIA

Y ENTRE CRISTALES Y COPAS

ME PERCATE QUE SU ROPA 

ERA IGUALITA A LA MIA.

     'REQUINTO'


Y LA GENTE LO ESCUCHABA

Y EL CANTINERO SERVIA

Y ENTRE CRISTALES Y COPAS

ME PERCATE QUE SU ROPA

ERA IGUALITA A LA MIA.


Y AL VERLO YO FIJAMENTE

VI QUE TAMBIEN ME VEIA

PERO TODO ERA UN REFLEJO

EL BORRACHO DEL ESPEJO

SU IMAGEN ERA LA MIA.


UNA SALUDO PARA CD. OBREGON, SONORA EN ESPECIAL 
PARA GABY.
Suggest correction
Give kudos to tab author, rate the tab!
1 2 3 4 5
comments
print report bad tab
guest
You may want to rate the tab now too:
select rating
Wanna post a correction for this tab? Suggest correction