Oops, an error
Loading. Please wait.

Millas Y Millas Tab

27 views 1 this week
no commentswrite comment
1 2 3 4 5
3 more votes to show rating
add to favorites
×
Save as Personal and add changes to this tab that will be seen only by you. Learn more ›
×
You can save this tab as Personal to edit and correct it or add notes. All changes will be seen only by you. Learn more »
save as personal
new!
launch autoscroll
font size
0
reset
how to read this tab
guitar tuner
Autoscroll
slow
fast
+/-
esc
set tempo
stop
REQUINTO
                B         C7          F     F                  C7
e|-13--15-13-11-10-10--|--3-1-0-1-0------|--5-5-6-8--8--6-10-8--6--|
B|-15--16-15-13-11-11--|--5-3-1-3-1------|--6-6-8-10-10-8-11-10-8--|
G|---------------------|------------3-2--|-------------------------|
D|---------------------|-----------------|-------------------------|
A|---------------------|-----------------|-------------------------|
E|---------------------|-----------------|-------------------------|

   C7                              F
e|-3-3-3-1-1-0-0-1-1-0-0-0--------------------------------------|
B|-5-5-5-3-3-1-1-3-3-1-1-0--------------------------------------|
G|-------------------------3-2-1-0------------------------------|
D|---------------------------------3----------------------------|
A|--------------------------------------------------------------|
E|--------------------------------------------------------------|


F     C7        F
Yo tan lejos de ti
                  C7
Me encuentro vida mía

Y en el fondo de mí
             F
Miro tu sonrisa


F    C7      F
Ya no puedo más
             C7
Necesito tocarte

Yo quiero tu amor
                F
Quiero acariciarte


F7           B
Millas y millas
C7               F
De distancia sin ti
               C7
Necesito tus besos
             F
Para sobrevivir


F7           B
Millas y millas
C7               F
De distancia sin ti
               C7
Necesito tus besos
             F
Para sobrevivir


REQUINTO


F     C7        F
Yo tan lejos de ti
                C7
No puedo soportarlo

Te necesito aquí
                  F
Ya no puedo evitarlo


F    C7      F
Paso a paso voy
                   C7
La distancia acortando

Pensando siempre estoy
                      F
Tenerte entre mis brazos


F7           B
Millas y millas
C7               F
De distancia sin ti
               C7
Necesito tus besos
             F
Para sobrevivir


F7           B
Millas y millas
C7               F
De distancia sin ti
               C7
Necesito tus besos
             F
Para sobrevivir


FINAL

e|-3-3-3-1-1-0-0-1-1-0-0-0-----------1---|
B|-5-5-5-3-3-1-1-3-3-1-1-0-----------1---|
G|-------------------------3-2-1-0---2---|
D|-----------------------------------3---|
A|-----------------------------------3---|
E|-----------------------------------1---|


*Estos son los acordes que se utilizan en esta canción
 las "x" indican las cuerdas donde se debe bajear.

   [ch]F o F       FA7 o F7       [ch]C7 o C7       SI[/ch] o B[/ch]
E|-----1-------------1--------------0------------3-----------|
B|-----1-------------4--------------1------------3-----------|
G|-----2-------------2--------------3------------3-----------|
D|---x-3-----------x-3--------------2------------3-----------|
A|---x-3-----------x-3------------x-3----------x-1-----------|
E|------------------------------- x-3----------x-1-----------|

Nota: Recomiendo usar esos acordes para que suene igual que la
      canción original
Suggest correction
Give kudos to tab author, rate the tab!
1 2 3 4 5
comments
print report bad tab
guest
Wanna post a correction for this tab? Suggest correction