Oops, an error
Loading. Please wait.

Ojitos Negros Tab

95 views 1 this week
no commentswrite comment
1 2 3 4 5
3 more votes to show rating
add to favorites
launch autoscroll
font size
0
reset
how to read this tab
guitar tuner
×
Best way to learn
"Ojitos Negros"
Autoscroll
slow
fast
+/-
esc
set tempo
stop
Un saludo pa la raza de Guasave, Sinaloa,
en especial pa la raza del Ranchito de Inzunza...

Hay les va la rola...

REQUINTO:
e|----0---4-2-0-----0---4-2-0---5-5---4-4---2---0-0-----|
B|--2-2---5-3-2---2-2---5-3-2---7-7---5-5---3---2-2-2-3-|
G|--2-------------2---------------------------------2-4-|
D|------------------------------------------------------|
A|------------------------------------------------------|
E|------------------------------------------------------|

e|--4-4--4-4-2---0-5-4-2-0---5-4-2-0-----2-0------------|
B|--5-5--5-5-3---2-7-5-3-2---7-5-3-2-3---3-2-3-2--------|
G|-----------------------------------4-------4-2--------|
D|------------------------------------------------------|
A|------------------------------------------------------|
E|------------------------------------------------------|

A
ojitos negros y encantadores
                               E7
quien los tuviera a un lado de mi
                            A
me puede mucho bien de mi vida
         E7             A
vivir ausente lejos de ti
A
me encuentro lejos vivo pensando
                              E7
solo en la ausencia de esa mujer
                        A
ojitos negros encantadores
                E7               A
que si Dios quiere los vuelvo a ver

REQUINTO:
e|----0---4-2-0-----0---4-2-0---5-5---4-4---2---0-0-----|
B|--2-2---5-3-2---2-2---5-3-2---7-7---5-5---3---2-2-2-3-|
G|--2-------------2---------------------------------2-4-|
D|------------------------------------------------------|
A|------------------------------------------------------|
E|------------------------------------------------------|

e|--4-4--4-4-2---0-5-4-2-0---5-4-2-0-----2-0------------|
B|--5-5--5-5-3---2-7-5-3-2---7-5-3-2-3---3-2-3-2--------|
G|-----------------------------------4-------4-2--------|
D|------------------------------------------------------|
A|------------------------------------------------------|
E|------------------------------------------------------|

A
dile a tus pares y a tus hermanos
                                  E7
que es un capricho el que vas a hacer
                               A
que no te digan que no te cuenten
               E7           A
que tu me quieres y yo tambien
A
aqui te dejo estas tres canciones
                           E7
pa que las cantes yo ya me voy
                              A
pa que las cantes con tu boquita
            E7               A
que son recuerdos que yo te doy  E7 A
Suggest correction
Give kudos to tab author, rate the tab!
1 2 3 4 5
comments
print report bad tab
guest
You may want to rate the tab now too:
select rating
Wanna post a correction for this tab? Suggest correction