Oops, an error
Loading. Please wait.

Sonora Y Sus Ojos Negros Tab

419 views 3 this week
no commentswrite comment
1 2 3 4 5
3 more votes to show rating
add to favorites
launch autoscroll
font size
0
reset
how to read this tab
guitar tuner
×
Best way to learn
"Sonora Y Sus Ojos Negros"
Autoscroll
slow
fast
+/-
esc
set tempo
stop
Original en G#


Intro

Riff 1
                    D                       G
e---3-3--3-3--2--3--5--2--2--0--0--0--0-----------------------------
B---5-5--5-5--3--5--7--3--3--1--0--1--0-----------------------------
G----------------------------------------2--0-----------------------
D-----------------------------------------------2-0-----2-0---------
A---------------------------------------------------3-2-----3-2-3-2-
E-------------------------------------------------------------------

e----------------------------------3-3-----3-3---
B----------------------------------3-3-----3-3---
G----------------------------------4-4-----4-4---
D---2-0----2-0---2-0----2-0------5---------------
A-------3------3-----3------3------------5-------
E------------------------------------------------

                  D
En un camión pasajero,
                      A7
de esos que van pa? Sonora,

yo iba cansado y con sueño,
                    D
cuando subió una señora,
                  A7
con unos ojazos negros,
                 D
de veras encantadora.

Por ahí llegando a los Mochis,
yo le vi buenos modales,
le pregunté que donde era,
me dijo, que de Nogales,
que iba para Magdalena,
a visitar a sus padres.

CORO 1

  D7                G
Desde Obregón a Hermosillo,
   A7            D
platicamos muy bonito,
                      A7
me gusta usted para amigo,
                     D
y se me arrimó un poquito,
                     A7
pero en SantAna de plano,
                 D
se dejó dar un besito.


Intro


Dame otro beso en la boca,
pero que nadie nos vea,
que importa si aquí es Caborca,
Agua Prieta o Cananea,
iba para Magdalena,
ahora voy, pa? donde sea.

En Santana y Huatabampo,
siempre fui muy maltratada,
si no me han querido tanto,
no me trajera abrazada,
a usted lo mandó algún Santo,
para que yo lo encontrara.

CORO 2

Guaymas y Puerto Peñasco,
no crean que los he olvidado,
es que durmió entre mis brazos,
en San Luis Río Colorado,
y al cantarle a sus ojazos,
le canto a su lindo estado.
Suggest correction
Give kudos to tab author, rate the tab!
1 2 3 4 5
comments
print report bad tab
guest
You may want to rate the tab now too:
select rating
Wanna post a correction for this tab? Suggest correction