Oops, an error
Loading. Please wait.

Tatuajes Tab

77 views 1 this week
no commentswrite comment
1 2 3 4 5
3 more votes to show rating
add to favorites
×
Save as Personal and add changes to this tab that will be seen only by you. Learn more ›
×
You can save this tab as Personal to edit and correct it or add notes. All changes will be seen only by you. Learn more »
save as personal
new!
launch autoscroll
font size
0
reset
how to read this tab
guitar tuner
Autoscroll
slow
fast
+/-
esc
set tempo
stop
      E7               D                 E7               D
e|---5-5-5-5-5-5-5-5--4-5-7--4-5-7--|----5-5-5-5-5-5-5-5--4-5-7--4-5-7--|
B|-4-7-7-7-7-7-7-7-7--5-7-9--5-7-9--|--4-7-7-7-7-7-7-7-7--5-7-9--5-7-9--|
G|-5--------------------------------|--5--------------------------------|
D|----------------------------------|-----------------------------------|
A|----------------------------------|-----------------------------------|
E|----------------------------------|-----------------------------------|

            A    E7 D     A
e|--10-9------------9-----5--5-5-5------------|
B|-------12-10---10-10----5--5-5-5------------|
G|------------------9-----6--6-6-6------------|
D|----------------------7-7--7-7-7------------|
A|-----------------------------------4-3-2-0--|
E|--------------------------------------------|


*Estos son los acordes que se utilizan en esta canción
 las "x" indican las cuerdas donde se debe bajear.

    [ch]A o A       [ch]E7 o E7[/ch]        [ch]D[/ch] o D[/ch]
E|-----5-------------0--------------7---------|
B|-----5-------------5--------------7---------|
G|-----6-------------7--------------7---------|
D|---x-7----------- -6--------------7---------|
A|---x-7-----------x-7------------x-5---------|
E|-----------------x-7------------x-5---------|

Nota: Recomiendo usar esos acordes para que suene igual que la
      canción original
Suggest correction
Give kudos to tab author, rate the tab!
1 2 3 4 5
comments
print report bad tab
guest
Wanna post a correction for this tab? Suggest correction