Oops, an error
Loading. Please wait.

Filo Contigo Bass

by Miguelo
7 views 1 this week
no commentswrite comment
1 2 3 4 5
3 more votes to show rating
add to favorites
launch autoscroll
font size
0
reset
guitar tuner
×
Best way to learn
"Filo Contigo"
Autoscroll
slow
fast
+/-
esc
set tempo
stop
Intro:

G--------------------------
D--------------------------
A--------------------------
E-1-11--1-11--1-11--1-11---


G----------------------------------------------------
D-3-3--0-3-3-0-3-3-0-3-3-0---------------------------
A----3------3-----3-----3--------4-3-2-1-------------
E---------------------------1-11---------1-11-1-11---

Canto:
Que mala onda se te ha metido, dices que no pasa nada conmigo,
G--------------------------
D--------------------------
A--------------------------
E-1-11--1-11--1-11--1-11---

y yo, yo, sueño, sueño, sueño contigo.Y yo, yo, sueño, sueño, sueño contigo.
G----------------------------------------------------
D----------------------------------------------------
A--1-11--1-11----------------1-11--1-11--------------
E-------------1-11--1-11----------------1-11--1-11---

Dices que deje de molestarte...


Lolita tu no sabes lo que te estas perdiendo, 
me dicen el volcán, me dicen el tremendo.
G--------------------------
D--------------------------
A-3-33--3-33--5-55-5-55----
E--------------------------


Si no quieres inflarme voy a darte un castigo 
y te voy a dejar, filo contigo (filo contigoo)
G----------------------------
D----------------------------
A-3-33--3-33--5-55-5-55--5555
E----------------------------

Noooooooo¡  pa-sa ná, (filo filo, filo contigo)
G--------- ---------- --------------
D-3-3-0-3- ---------- -3-0-3-3-3----
A----3---- -1--3----- --3-----0-----
E--------- -------1-- --------------

Noooooooo¡  pa-sa ná, (filo filo, filo contigo)
G--------- ---------- --------------
D-3-3-0-3- ---------- -3-0-3-3-3----
A----3---- -1--3----- --3-----0-----
E--------- -------1-- --------------

No, no, no, no, no, no, no, no, no pa-sa ná (filo, filo, filo contigo)
G---------                        ---------- --------------
D-3-3-0-3-                        ---------- -3-0-3-3-3----
A----3----                        -1--3----- --3-----0-----
E---------                        -------1-- --------------
No, no, no, uh, pasa ná.
G----------------------------
D----------------------------
A-333333333------------------
E----------------------------

Dices que deje de molestarte
y lo que yo quiero es conquistarte,
y yo sigo, sigo, sigo metido.
Y yo, yo sigo, sigo, sigo metido.

Lolita tu no sabes lo que te estas perdiendo,
me dicen el volcán, me dicen el tremendo.
Si no quieres inflarme voy a darte un castigo
y te voy a dejar, filo contigo (filo contigoo)


Nooo pasa ná, (filo filo, filo contigo)
Nooo pasa ná, (filo filo, filo contigo)
No, no, no, no, no, no, no, no, no pasa ná (filo, filo, filo contigo)
No, no, no, uh, pasa ná.

SOLO

Nooo pasa ná, (filo filo, filo contigo)
Nooo pasa ná, (filo filo, filo contigo)
No, no, no, no, no, no, no, no, no pasa ná (filo, filo, filo contigo)
No, no, no, uh, pasa ná. (bis)

Chao espero que les sirva, yo encuentro súper buena esta canción, 
además ahora que miguelo
sale en el ROJO VIP está voviendo a las radios. Se despide Jaime Varas
Suggest correction
Give kudos to tab author, rate the tab!
1 2 3 4 5
comments
print report bad tab
guest
You may want to rate the tab now too:
select rating
Wanna post a correction for this tab? Suggest correction