Oops, an error
Loading. Please wait.

Let It Out Bass Tab

2,324 views 6 this week
no commentswrite comment
1 2 3 4 5
excellent!
x 4
add to favorites
launch autoscroll
font size
0
reset
guitar tuner
Tab Pro tools
  • play this tab
  • loop segment
  • change instrument
  • show fretboard
  • metronome
×
Best way to learn
"Let It Out"
Autoscroll
slow
fast
+/-
esc
set tempo
stop
Contributor
Song: Let It Out
Band: Fukuhara Miho
Tabbed By : ChaelMi
e-mail: ikel_22@yahoo.com

Tuning: EADG

*Verse I (00:22)
|-------------------------------------------|
|-------------------------------------------|
|-/17-17-19-20-19-17-15-13----------------3-|
|--------------------------13\6---3-5-556---|

*Pre-chorus I (00:33)
|-----------------------------------------------------------------------------------|
|--------5---------------------3-3h53-----------5-----------------------------------|
|-----5/7-7\55---533----------3-5----53------5/7-7\55---55-33333333/15-15-15-15-15\-|
|-66------------6----300-01-1------------66-----------/6----------------------------|

*Chorus I (00:55)
|---------------------------------------------------------------------------|
|---------------------------------------------------------------------------|
|-5555----3333-----5555----3333-01-3-------3333-555-7h8-7-5-3-------------3-|
|-----6666----1100-----6666---------1--6666-------------------333355556666--|

*Pre-verse (01:16)
|---------------------------------------------------------|
|---------------------------------------------------------|
|--------/13-13-13-13-13-13\55555-35--5-3333/15-15-15-15\-|
|-6666666----------------------------6--------------------|

*Verse II (01:30)
|-------------------------------------------------------------------------|
|--------------10-15-17-15-14-15-14--------------------8------------------|
|-/13--15-13-8---------------------15--15\--5-578753--8-------5---------3-|
|------------------------------------15-------------6----63-56-65-556-66--|

*Pre-chorus II (01:48)
|----------------------------------------------------------------------------------------------|
|--------5---------14--13-----------------3-787------------5-----------------------------------|
|-----5/7-7\55--/15--14---33-------------3-----85-------5/7-7\55---55-33333333/15-15-15-15-15\-|
|-66-------------------------03530-001-1---------8--66-----------/6----------------------------|

*Chorus II (02:11)
|-----------------------------------------------------------------------------|
|-----------------------------------------------------------------------------|
|-5555----3333-----557875----3333-01-3-------3333-555-7h8-7-5-3-------------3-|
|-----6666----1100-------6666---------1--6666-------------------333355556666--|

*Bridge (02:33)
|--------------------------------------------------------------------------------------|
|--------------------------------------------------------------------------------------|
|-----------3-3x3x3-3-5-5x5x5-5-6-6-8-888-------10(6x)------12(6x)------13(6x)-/15--15-|
|-6-6x6x6-6-------------------------------3x3-3/------5x5-5/------6x6-6/---------------|

*Solo (02:54)
|----------------------------------------------------------------------------------|
|---------------------------------------------------------------5------------------|
|-5555----3333-8877-5555----3333-01-3------3333-555-7h8-7-5-3--5-5-------12-13-15\-|
|-----6666--------------6666---------1-6666-------------------3---555566/----------|

*Chorus III (03:16)
|--------------------------------------------------------------------------------------|
|--------------------------------------------------------------------------------------|
|-5555----3333-----557875----3333-01-3-------3333-555-7h8-7-5-3----10---12---12-13-15\-|
|-----6666----1100-------6666---------1--6666-------------------33/--55/--66/----------|

(03:38)
|------------------------------------------------------------------------------------|
|------------------------------------------------------------------------------------|
|-5555----3333-----5555----3333-01-3-------3333-555-7h8-7-5-3----10---12---12-13-15\-|
|-----6666----1177-----6666---------1--6666-------------------33/--55/--66/----------|

*Outro (04:00)
|--------------------------------------------------------------------------------------------|
|-15--15-14-15--15-14-15-14-15-17-15-14---------------------------------------------15/17-15-|
|---------------------------------------15-13-12--13-12-13--13-12-13-12-13-15-13-15----------|
|--------------------------------------------------------------------------------------------|

| /  slide up
| \  slide down
| h  hammer-on
| x  mute note

Please rate and comment!
Suggestions are welcome too.
comments
print report bad tab
I want to post or [tab]
guest
You may want to rate the tab now too:
select rating
Please do not post tabs as comments. Select "correction" instead!