Oops, an error
Loading. Please wait.

Let It Out chords

version 2
version 2

Whole song

  • Added unofficial English translation of lyrics.
118 views 3 this week
no commentswrite comment
1 2 3 4 5
2 more votes to show rating
add to favorites
×
Save as Personal and add changes to this tab that will be seen only by you. Learn more ›
×
You can save this tab as Personal to edit and correct it or add notes. All changes will be seen only by you. Learn more »
launch autoscroll
font size
0
reset
transpose
0
reset
simplify chords
display chords
guitar tuner
edit
Autoscroll
slow
fast
+/-
esc
set tempo
stop
About this tab version
Added unofficial English translation of lyrics. Was this info helpful? Yes No
Strumming
There is no strumming pattern for this song yet. and get +5 IQ
[Intro]
e|-5----5----5----5---12-|-5----5----5----5---12-|
B|-6--6-6--6-6--6-6---13-|-6--6-6--6-6--6-6---13-|
G|----7----7----7--------|----7----7----7--------|
D|-----------------------|-----------------------|
A|-----------------------|-----------------------|
E|-----------------------|-----------------------|

e|-5----5----5----5---12-|-5----5----5----5---12-|
B|-6--6-6--6-6--6-6---13-|-6--6-6--6-6--6-6---13-|
G|----7----7----7--------|----7----7----7--------|
D|-----------------------|-----------------------|
A|-----------------------|-----------------------|
E|-----------------------|-----------------------|

[Verse 1]
       Am               F
Let it all out, let it all out
      C                                         G
You don't have to think your heart is made of steel
       Am                 F             
Come away now, from your own doubt
         Dm7                     C          F               G
Like a flower of hope that's growing in a field, you will heal
   F                                   Am   
Although the road has changed you, And the world has often failed you
   G                                                   C                         
You've gotta carry on and show them you're strong, You've gotta bury what is past and gone
   F                                                                G  C  F  
Some days will be worse than others, But you've gotta find another way-y-y

[Chorus 1]
 G                Am                 F              G              C
Through pain and fear, or rain and tears, We will hold on to the light
                 Am          F            G                  E7
We'll chase the dawn that, waits for us beyond the darkest sky 
         F               G           Am                 C
Keep following that distant star, Never walk away from who you are
        Dm7               C          F       G           
Never forget, that the promise of tomorrow lies in your heart

[Instrumental]
 F   Am   C   G
or   
e|-----5h6-----5h6-|-----5h6-----5h6-|
B|-6-6-----6-6-----|-6-6-----6-6-----|
G|-----------------|-----------------|
D|-----------------|-----------------|
A|-----------------|-----------------|
E|-----------------|-----------------|

e|-----5h6-----5h6-|-----5h6-----5h6-|
B|-6-6-----6-6-----|-6-6-----6-6-----|
G|-----------------|-----------------|
D|-----------------|-----------------|
A|-----------------|-----------------|
E|-----------------|-----------------|

e|---------8-8-8-8-|
B|-6-6-6-6---------|
G|-----------------|
D|-----------------|
A|-----------------|
E|-----------------|

[Verse 2]
        Am              F
Let it all out, let it all out
         C                             G
Nothing ever seems to work or go your way 
             Am              F
But you'll learn that isn't all bad
        Dm7            C              F    G
The misfortune isn't always here to stay, hey
   F                             Am 
Once upon a time in my youth, I wanted a taste of the truth
   G                                      C                     
But everything that I came to find, Was nothing but a castle built on lies 
   F                                 Am                             G      C      F     G
Now I don't know what to believe, But I've gotta stay alive, and breathe, yeah, yeah

[Chorus 2]
        Am                F                      G           C
I'm terrified, but I'm alright, Knowing you're there by my side
              Am          F                G             E7
When I'm with you, I'm stronger and I'll never have to hide
       F                 G               Am               C
I've known it from the very start, Even if we're far or worlds apart
    Dm7          C              F                   G
Nothing will change, that the promise of tomorrow lies in our hearts

[Bridge]
     F                                    C
How can I tell right from wrong when everything I've known has betrayed me? 
        Am                                    A#
Do we take the truth at its face value, or do we give up on believing?
         Dm7                           C
When I think about losing you, in my heart I know what I should do
       F                                  G
Deep down I know that I'll never let you go

[Solo]
Am F G Em
Am F G Em
F G Am
Dm7 Em F G

[Chorus 1]
                  Am                 F              G              C
Through pain and fear, or rain and tears, We will hold on to the light
                 Am          F            G                  E7
We'll chase the dawn that, waits for us beyond the darkest sky 
         F              G           Am                  C
Keep following that distant star, Never walk away from who you are
        Dm7               C          F      G                  
Never forget, that the promise of tomorrow lies in your heart

[Chorus 3]
              Am           F               G               C
As seasons change and rearrange, And the sands of time descend
              Am             F              G               E7
As all your hope, starts vanishing you'll always have a friend 
         F              G           Am                 C
In brightest day or darkest night, Even if we have to say goodbye
           Dm7               C          F     G               F   Am   C   G
You'll be alright, I will always and forever be by your side

[Outro]
e|-5----5----5----5---12-|-5----5----5----5---12-|
B|-6--6-6--6-6--6-6---13-|-6--6-6--6-6--6-6---13-|
G|----7----7----7--------|----7----7----7--------|
D|-----------------------|-----------------------|
A|-----------------------|-----------------------|
E|-----------------------|-----------------------|

e|-5----5----5----5---12-|-5----5----5----5---12-|
B|-6--6-6--6-6--6-6---13-|-6--6-6--6-6--6-6---13-|
G|----7----7----7--------|----7----7----7--------|
D|-----------------------|-----------------------|
A|-----------------------|-----------------------|
E|-----------------------|-----------------------|

            
            
Suggest correction
Creating personal tab
Creating personal tab
You can edit any tab online and save it as your Personal.

You can edit, replace or remove any tab part or add personal notes – all changes will be seen only by you.

Personal tabs can be accessed anytime from any device, even offline.
Learn more »
Give kudos to tab author, rate the tab!
1 2 3 4 5
comments
print report bad tab
guest
You may want to rate the tab now too:
select rating
Wanna post a correction for this tab? Suggest correction