Oops, an error
Loading. Please wait.

Blues Eyes Tab

by Mika
23,319 views 24 this week
2 commentsread comments
1 2 3 4 5
accurate
x 4
add to favorites
launch autoscroll
font size
0
reset
how to read this tab
guitar tuner
Autoscroll
slow
fast
+/-
esc
set tempo
stop
Help us to improve Ultimate-Guitar.com Take our survey!
×
Author
Difficulty
novice
Mika: Blue Eyes
Enjoy this tab; please feel free to leave comments and rate : )

guitar main theme
E|-----------------------------------|
B|-----2----------------2------------|
G|---3--3-------1-----3--3-------1---|
D|-4-----4----3--3--4-----4----3---3-|
A|----------4----------------4-------|
E|-----------------------------------|

E|-----------------------------------|
B|-----4------6-7-----4--------------|
G|---4--4-----------4--4--8--6-------|
D|-6--------4-----6-------8--6-------|
A|--------6---------------6--4-------|
E|-----------------------------------|

Piano main theme
E|------------------------------|
B|-11--11---11---11h12-12-12-11-|
G|---11--11---11----------------|  (x2)
D|------------------------------|
A|------------------------------|
E|------------------------------|

E|------------------------------|
B|------------------------------|
G|-11--11---11--11-11-10-11-----|
D|---9----9---9-----------------|
A|------------------------------|
E|------------------------------|
Suggest correction
comments
print report bad tab
2 comments total.
0 reply
rguitarsfunl 10 wrote on August 28 2009, 06:30 pm

nigh perfect with one exception.
E|------------------------------|
B|------------------------------|
G|-11--11---11--11-11-10-11-----|
D|---9----9---9-----------------|
A|------------------------------|
E|------------------------------|
should be
E|------------------------------|
B|------------------------------|
G|-11--11--11--11-11-10-11------|
D|---13--13--13-----------------|
A|------------------------------|
E|------------------------------|

0 reply
poncem91 10 wrote on April 2 2010, 03:54 pm

it's easier to play it with a capo in the first fret :)

Also the 2nd part of the guitar riff is like this:

E|-----------------------------------|
B|-----4------6-7-----4--------------|
G|---4--4-----------4--4-------------|
D|-6--------4-----6---------4----3---|
A|--------6---------------6----4-----|
E|-----------------------------------|

guest
You may want to rate the tab now too:
select rating
Please do not post tabs as comments. Select "correction" instead!