Oops, an error
Loading. Please wait.

Love Today Bass Tab

version 1
version 1

Whole song

Interactive

by Mika
7,331 views 3 this week
2 commentsread comments
1 2 3 4 5
x 5
add to favorites
launch autoscroll
font size
0
reset
guitar tuner
Autoscroll
slow
fast
+/-
esc
set tempo
stop
Help us to improve Ultimate-Guitar.com Take our survey!
×
Hello my name is Kjartan and i'm 13 years old and play bass-guitar alot.
I hope U enjoy the song ;)

G|------------------------------------|
D|-----9---9---9---9---9---9---2---4--|   x3
A|------------------------------------|            
E|---7---7---7---7---7---7---0---2----|

G|---------------------------------------------------------------------------------------|
D|-----9---9---9---9---9---9---9---9---7---7---7---7---2---2---4---4---------------------|
A|---------------------------------------------------------------------------------------|
E|---7---7---7---7---7---7---7---7---5---5---5---5---0---0---2---2-----------------------|

G|------------------------------------|
D|-----9---9---9---9---9---9----------|
A|------------------------------------|
E|---7---7---7---7---7---7------------|
Suggest correction
comments
print report bad tab
2 comments total.
0 reply
Jocke1995 60 Feb 16, 2009 10:54 AM

Whats the order of song ??

0 reply
cornflakes93 157 Dec 20, 2013 12:53 PM

Nice tab, good job! but easier on movement if you play it like:

G|-----4--4--4--4--4--4----------------------|
D|------------------------2---4--------------|
A|---2--2--2--2--2--2------------------------|
E|----------------------0---2----------------|

G|-----4--4--4--4--4--4----2--2--2--2---------------------|
D|----------------------------------------2--2---4---4----|
A|---2--2--2--2--2--2-----0--0--0--0----------------------|
E|--------------------------------------0--0---2---2------|

G|-----4--4--4--4--4--4------|
D|---------------------------|
A|---2--2--2--2--2--2--------|
E|---------------------------|

guest
You may want to rate the tab now too:
select rating
Wanna post a correction for this tab? Suggest correction