Oops, an error
Loading. Please wait.

Love Today Bass Tab

version 2
version 2

Whole song

Interactive

by Mika
2,429 views 1 this week
1 commentread comment
1 2 3 4 5
please rate
add to favorites
launch autoscroll
font size
0
reset
guitar tuner
Tab Pro tools
  • play this tab
  • loop segment
  • change instrument
  • show fretboard
  • metronome
×
Best way to learn
"Love Today"
Autoscroll
slow
fast
+/-
esc
set tempo
stop
Contributor
Difficulty
novice
Hey everyone!
This is my first tab, so don't be hard on the comments/votes! :-P
Standard tuning is required to play this song! Have fun!
It's not the complete song, but I'm working on it!
-------------------------------------------------------------------------------
                             Love today - Mika
-------------------------------------------------------------------------------
Tuning: E,A,D,G
Tabbed By : N!elz
e-mail: niels@iniels.nl

G|-----4---4---4---4---4---4----------|
D|-----------------------------2---4--|   x3
A|---2---2---2---2---2---2------------|            
E|---------------------------0---2----|

G|-----4---4---4---4---4---4---4---4---2---2---2---2-------------------------------------|
D|-----------------------------------------------------2---2---4---4---------------------|
A|---2---2---2---2---2---2---2---2---0---0---0---0---------------------------------------|
E|---------------------------------------------------0---0---2---2-----------------------|

G|-----4---4---4---4---4---4----------|
D|------------------------------------|   
A|---2---2---2---2---2---2------------|            
E|------------------------------------|

| /  slide up
| \  slide down
| h  hammer-on
| p  pull-off
| ~  vibrato
| +  harmonic
| x  Mute note
===============================================================================
comments
We did not receive enough feedback on this tab! Please rate:
print report bad tab
1 2 3 4 5
1 comment total.
0 reply
N!elz wrote on April 20 2013, 01:45 pm

Hey everyone!
This is my first tab, so don't be hard on the comments/votes! :-P
Standard tuning is required to play this song! Have fun!
It's not the complete song, but I'm working on it!
-------------------------------------------------------------------------------
Love today - Mika
-------------------------------------------------------------------------------
Tuning: E,A,D,G
Tabbed By : N!elz
e-mail: niels@iniels.nl

G|-----4---4---4---4---4---4----------|
D|-----------------------------2---4--| x3
A|---2---2---2---2---2---2------------|
E|---------------------------0---2----|

G|-----4---4---4---4---4---4---4---4---2---2---2---2-------------------------------------|
D|-----------------------------------------------------2---2---4---4---------------------|
A|---2---2---2---2---2---2---2---2---0---0---0---0---------------------------------------|
E|---------------------------------------------------0---0---2---2-----------------------|

G|-----4---4---4---4---4---4----------|
D|------------------------------------|
A|---2---2---2---2---2---2------------|
E|------------------------------------|

| / slide up
| \ slide down
| h hammer-on
| p pull-off
| ~ vibrato
| + harmonic
| x Mute note
===============================================================================

I want to post or [tab]
guest
You may want to rate the tab now too:
select rating
Please do not post tabs as comments. Select "correction" instead!