Oops, an error
Loading. Please wait.

Yuki No Hana Tab

version 1
version 1

Whole song

38,137 views 27 this week
2 commentsread comments
1 2 3 4 5
accurate
x 5
add to favorites
launch autoscroll
font size
0
reset
how to read this tab
guitar tuner
Autoscroll
slow
fast
+/-
esc
set tempo
stop
Help us to improve Ultimate-Guitar.com Take our survey!
×
Difficulty
intermediate
-------------------------------------------------------------------------------
                             Yuki No Hana - Mika Nakashima
-------------------------------------------------------------------------------
Tabbed by: Casey Smith

Email: QBfootball12@aol.com

Tuning: Standard

*I searched the ENTIRE internet for these guitar tabs.  They DO NO exist.  It is a 
great song, very tranquil.  I simply HAD to post these tabs, because there are so many forums 
with people eager to find this tab, and it's such a fun song to play.  So here you are! Enjoy. :)

e|--------|---0-------0--3---------------3------|----------------------------------------------|
B|--------|-------3----------3-----------3------|---------1---1--------------------------1--3--|
G|-----0--|-------0------------------0-------0--|---0/2-------2--2---0-------0------0----------|
D|--------|-------------------------------------|---3--------------------2---------------------|
A|--------|---3------------------2--------------|--------------------3----------2--------------|
E|--------|-------------------------------------|----------------------------------------------|

e|---0-------0---3/5---3-------0---|---0/1---0-----------0--------------------------|
B|-------3---------------------0---|-------------3---1-------3-----------0----------|
G|-------0---------------------0---|-------------2---2-------------------0------0---|
D|-------------------------4-------|---0-----------------------------3-------0------|
A|---0-----------------------------|------------------------------------------------|
E|---------------------0-----------|-----------------------------3-------3----------|

e|---0-------0--3---------------3------|----------------------------------------------|
B|-------3----------3-----------3------|---------1---1--------------------------1--3--|
G|-------0------------------0-------0--|---0/2-------2--2---0-------0------0----------|
D|-------------------------------------|---3--------------------2---------------------|
A|---3------------------2--------------|--------------------3----------2--------------|
E|-------------------------------------|----------------------------------------------|


e|---0-------0---3/5---3-------0---|---0/1---0------------------------------|
B|-------3---------------------0---|-------------3-------1---1-------1------|
G|-------0---------------------0---|-------------2-------2---0-------0------|
D|-------------------------4-------|---0-------------------------3-------3--|
A|---0-----------------------------|-------------------------3--------------|
E|---------------------0-----------|-----------------3----------------------|

e|--------------------3-------3------|--3---1---0----------------------------|
B|--1-------------1---1-------1------|--1---1---0---3---1/3-------3---1---0--|
G|--0-------0/2-------2-------2------|--1---1---1---1-------------0---0---0--|
D|------2-------------3---3-------3--|------------------------2--------------|
A|--3--------------------------------|------------------0--------------------|
E|-----------------------------------|--0------------------------------------|

e|--0/1-----------------3-------3------|--3---1---0-----------0---0---------------0--------------|
B|------------------1---1-------1------|--1---1---0-------3-------------------1---------------1--|
G|------------0/2-------2-------2------|--1---1---1-------1---------------4---------------4------|
D|--------2-------------3---3-------3--|------------------------------2---------------2----------|
A|-------------------------------------|--------------------------0------------------------------|
E|--3----------------------------------|--0-----------0------------------------------------------|

e|--0-----------------------------7--|--7/8---7----------------------------------|
B|----------1---1---10-------10------|--7---------10-------7---7/8-------8---10--|
G|----------0---0----9--------9------|--8----------8-------8---7---------7----7--|
D|------2-----------10-------10------|-------------------------------------------|
A|-------------------9---9-----------|-------------------------7-----7-----------|
E|--3--------------------------------|--7--------------7-------------------------|

e|--5/6---5----------------------------------|--------------------4/5-------5---4---5--|
B|--5---------8-------5/6---4/5-------5------|--1-------------1---5---------5---5---5--|
G|--6---------6-------6-----4/5-------5---5--|--2-------0/2-------4---------4---4---4--|
D|--------------------------0-----0----------|--0---0----------------------------------|
A|-------------------------------------------|-----------------------------------------|
E|--5-------------5--------------------------|--------------------0-----0--------------|


e|--5/6---5----------------------------------|--------------------4/5-------5---4---5--|
B|--5---------8-------5/6---4/5-------5------|--1-------------1---5---------5---5---5--|
G|--6---------6-------6-----4/5-------5---5--|--2-------0/2-------4---------4---4---4--|
D|--------------------------0-----0----------|--0---0----------------------------------|
A|-------------------------------------------|-----------------------------------------|
E|--5-------------5--------------------------|--------------------0-----0--------------|


e|--5/6---5----------------------------------|--------------------4/5-------5---4---5--|
B|--5---------8-------5/6---4/5-------5------|--1-------------1---5---------5---5---5--|
G|--6---------6-------6-----4/5-------5---5--|--2-------0/2-------4---------4---4---4--|
D|--------------------------0-----0----------|--0---0----------------------------------|
A|-------------------------------------------|-----------------------------------------|
E|--5-------------5--------------------------|--------------------0-----0--------------|


e|--5/6---5----------------------------------|--------------------4/5-------5---4---5--|
B|--5---------8-------5/6---4/5-------5------|--1-------------1---5---------5---5---5--|
G|--6---------6-------6-----4/5-------5---5--|--2-------0/2-------4---------4---4---4--|
D|--------------------------0-----0----------|--0---0----------------------------------|
A|-------------------------------------------|-----------------------------------------|
E|--5-------------5--------------------------|--------------------0-----0--------------|

e|--5/7---------------7/8---7---7/8---7--|--7/8---7---5------------12---12--|
B|--5---------5---5---5-----5---5-----5--|--5-----5-------8---10---10---10--|
G|--4---------4---4---5-----5---5-----5--|--5-----5-------5---10---10---10--|
D|---------------------------------------|--5-------------------------------|
A|--------------------0---------0--------|---------------------8------------|
E|--0-----0------------------------------|----------------------------------|

e|------7---8---10---7-----------------------10--|--8---------------------------------5---3--|
B|------0---0----0---0---10---8/10---8---8-------|--5-------5---6---8---6/8---6---6-------0--|
G|------0---0----0---0----0---0------0---0-------|--5-------5---5---5---5-----5---5----------|
D|-----------------------------------------------|----------------------0--------------------|
A|--8--------------------------------------------|--0---0------------------------------------|
E|----------------------------0------------------|----------------------------------------0--|

e|--0---------------------------1/3---1---1---3/5--|--4/5---4---5-------7---7/8---7---7/8---7--|
B|------3---1---------------1---1-----1---1--------|--5-----5---5-------5---5-----5---5-----5--|
G|----------0-------0---2-------2-----2------------|--4-----4---4-------4---5-----5---5-----5--|
D|------------------------------0------------------|-------------------------------------------|
A|-------------------------------------------------|------------------------0------------------|
E|--------------0----------------------------------|--0-------------0--------------------------|

e|--7/8---7---5-------12---12------|------7---8---10---7-----------------------10--|
B|--5-----5-------8---10---10------|------0---0----0---0---10---8/10---8---8-------|
G|--5-----5-------5---10---10------|------0---0----0---0----0---0------0---0-------|
D|--5------------------------------|-----------------------------------------------|
A|---------------------------------|--8--------------------------------------------|
E|---------------------------------|----------------------------0------------------|

e|--8---------------------------------5---3--|--0---------------------------1/3---1---1---3/5--|
B|--5-------5---6---8---6/8---6---6-------0--|------3---1---------------1---1-----1---1--------|
G|--5-------5---5---5---5-----5---5----------|----------0-------0---2-------2-----2------------|
D|----------------------0--------------------|------------------------------0------------------|
A|--0---0------------------------------------|-------------------------------------------------|
E|----------------------------------------0--|--------------0----------------------------------|


e|------8---8-----------------------------|--0----------------------------------|--------|
B|--8---8---8-----------5/6---5---6---8---|--0-------3-------1---1-------1------|--1-----|
G|--0-----------5---7---5-----5---5---5---|--0-------0-----------0-------0------|--0-----|
D|----------------------0-----------------|----------------------3---3-------3--|--2-----|
A|----------------------------------------|----------------------3--------------|--3-----|
E|--0-------------------------------------|--3---3-------3----------------------|--------|


| /  slide up
| \  slide down
| h  hammer-on
| p  pull-off
| ~  vibrato
| +  harmonic
| x  Mute note
===============================================================================
Suggest correction
What's this?
You can suggest a correction to this tab. Community and Mods will review your correction and vote to approve or reject it.
comments
print report bad tab
2 comments total.
+1 reply
aby canra 12345 19 wrote on January 8 2010, 07:03 pm

tabs r fine, we can at least learn.
its not the.. best, but great job. thanks:)

0 reply
Ultimate-Jacob 15 wrote on January 6 2014, 03:20 am

I like the tabs at the start, and it's easy to loop if you just want a short awesome song. But the part where you start to play "chords" are kinda weird to me - I had a hard time figuring them out, and they sound off.
Otherwise, good job!

guest
You may want to rate the tab now too:
select rating
Please do not post tabs as comments. Select "correction" instead!