Oops, an error
Loading. Please wait.

Vingar chords

1,744 views 42 this week
no commentswrite comment
1 2 3 4 5
2 more votes to show rating
add to favorites
×
Save as Personal and add changes to this tab that will be seen only by you. Learn more ›
×
You can save this tab as Personal to edit and correct it or add notes. All changes will be seen only by you. Learn more »
launch autoscroll
font size
0
reset
transpose
0
reset
display chords
guitar tuner
edit
Autoscroll
slow
fast
+/-
esc
set tempo
stop
Author
Strumming
There is no strumming pattern for this song yet. and get +5 IQ
Most credit goes to this guy: http://www.ljudbojen.com/viewtopic.php?p=455821#p455821

The intro riff is played during the chorus


[Intro]

N.C.
Jag ska köpa vingar för pengarna, och flyga ut över ängarna
N.C.
Och när jag har flugit tusen mil, skall jag flyga tusen till
N.C.
Att göra det man måste är att göra det man vill

[Riff]
E|-----------------------------------------------|
B|-----------------------------------------------|
G|-----------------------------------------------|
D|-----------------1--3--3-----3--3--1-----------|
A|--3--3--3--1--3-----------------------3--1--3--|
E|-----------------------------------------------|
(Played twice)


[Verse 1]

            Cm
Jag har amorterat på livet, stått längst bak i kön
Cm                                           Eb F
Aldrig haft semester eller tagit ut nån lön
Cm
Jag har levt som miljonär, och unnat mig allt
        Cm
Den som lever på kredit får betala tusenfalt


[Chorus]

            F                   
Jag har förstått nu och jag vet vad jag vill
            Ab               Bb             Gm
Vad jag ska göra och använda framtiden till
             Cm                  Eb F                           Bb Cm
Jag ska köpa vingar för pengarna      och flyga ut över ängarna
             Cm                  Eb F                           Bb Cm
Jag ska köpa vingar för pengarna      och flyga ut över ängarna


[Verse 2]

        Cm
För det finns en särskild mening med att bara finnas till
    Cm                                           Eb F
Att göra det man måste är att göra det man vill
    Cm
Jag skymtar en förmögenhet i skuggan av en dröm
    Cm
där fåglarna är vilda när dom vaknar ur sin sömn


[Chorus]

                    F                   
Jag har förstått nu och jag vet vad jag vill
            Ab               Bb             Gm
Vad jag ska göra och använda framtiden till
             Cm                  Eb F                           Bb Cm
Jag ska köpa vingar för pengarna      och flyga ut över ängarna
             Cm                  Eb F                           Bb Cm
Jag ska köpa vingar för pengarna      och flyga ut över ängarna
             Cm                  Eb F                           Bb Cm
Jag ska köpa vingar för pengarna      och flyga ut över ängarna
             Cm                  Eb F                           Bb Cm
Jag ska köpa vingar för pengarna      och flyga ut över ängarna


[Bridge]

                Ab           Eb          Bb               Bb
Och när jag har flugit tusen mil ska jag flyga tusen till
        Ab           Eb           Bb           
För att göra det man måste är att göra det man vill

[Riff]
E|-----------------------------------------------|
B|-----------------------------------------------|
G|-----------------------------------------------|
D|-----------------1--3-----3--3--3--1-----------|
A|--3--3--3--1--3-----------------------3--1--3--|
E|-----------------------------------------------|
(Played four times)


[Verse 3]

         Cm
Mina vingar skall jag fästa med en kärlek som är sann
         Cm                                             Eb F
Mina vingar ska jag vinna och säja "Hej, jag vann"
           Cm
Men du vinner ingen frihet utan att offra den du var
        Cm
och vända dig mot vinden och skrika ut ditt svar


[Chorus]

            F
Jag har förstått nu och jag vet vad jag vill
            Ab               Bb             Gm
Vad jag ska göra och använda framtiden till
             Cm                  Eb F                           Bb Cm
Jag ska köpa vingar för pengarna      och flyga ut över ängarna
             Cm                  Eb F                           Bb Cm
Jag ska köpa vingar för pengarna      och flyga ut över ängarna
             Cm                  Eb F                           Bb Cm
Jag ska köpa vingar för pengarna      och flyga ut över ängarna
             Cm                  Eb F                           Bb Cm
Jag ska köpa vingar för pengarna      och flyga ut över ängarna


[Outro]

E|-----------------------------------------------|
B|-----------------------------------------------|
G|-----------------------------------------------|
D|-----------------1--3-----3--3--3--1-----------|
A|--3--3--3--1--3-----------------------3--1--3--|
E|-----------------------------------------------|

E|-----------------------------------------------------|
B|-----------------------------------------------------|
G|-----------------------------------------------------|
D|-----------------1--3-----3--3--3--1-----3--1--------|
A|--3--3--3--1--3-----------------------3--------3--1--|
E|-----------------------------------------------------|
Suggest correction
Creating personal tab
Creating personal tab
You can edit any tab online and save it as your Personal.

You can edit, replace or remove any tab part or add personal notes – all changes will be seen only by you.

Personal tabs can be accessed anytime from any device, even offline.
Learn more »
Give kudos to tab author, rate the tab!
1 2 3 4 5
comments
print report bad tab
guest
You may want to rate the tab now too:
select rating
Wanna post a correction for this tab? Suggest correction