Oops, an error
Loading. Please wait.

So In Love With Two Tab

version 1
version 1

Whole song

Interactive

688 views 1 this week
no commentswrite comment
1 2 3 4 5
please rate
add to favorites
launch autoscroll
font size
0
reset
how to read this tab
guitar tuner
Autoscroll
slow
fast
+/-
esc
set tempo
stop
Help us to improve Ultimate-Guitar.com Take our survey!
×
Contributor
paramore_fans 85,542
Mikaila
So In love with Two
2001
submitted by: paramore_fans@yahoo.com


Tuning: Standard EADGBe


Chords used:
Dm -  xx0231
Bb -  x13331
C -   x32010
A -   x02220
Gm -  355333
Ebm - x68876
B -   x24442
C# -  x46664


Intro: Dm-Bb-C-A

Double Bass Viola
e|--------------------------------------------|
B|--------------------------------------------|
G|--------------------------------------------|
D|-0--0-2-3-2-0-------------2-0-------------0-|
A|--------------3-1--3--3-5-----3-0-0---0-3---|
E|--------------------------------------------|

Dm  Bb            C                  A
 Heyeh......... I don't know what to do


Verse 1:
Dm             Bb                                C
  My number one There could never be no one like you
         A
How come I feel this way about
Dm             Bb                              C
  My number two Never tried to tell me what to say or do
A
I'm so in love with two


Refrain:
Dm                     Bb
  I don't wanna push it I don't wanna fight
C                              A
  Oh But this feeling keeps me up all night


Chorus 1:
Dm                  Bb                          C
  If I only could decide But I can't make up my mind
                    A
I'm breaking all my rules Because of you
Dm                         Bb                         C
  You can tell me it's not right And it tears me up inside
                       A
But the problem is I'm so in love with two


Post Chorus:
Dm       Bb     C                     A
  Heyeh......... I don't know what to do
Dm       Bb     C                     A
  Heyeh..........I choose the both of you


Verse 2:
Dm             Bb                             C
  My number one You're givin' me everything I need
         A
But some things still are betta with
Dm             Bb                                 C
  My number two He's the one that really makes me feel ---so good
A
I'm so in love with two


Before Chorus: you will hear an acoustic guitar plucking fast like this
e|-9------9------9------9------12--10-|
B|---10-----10-----10-----10----------|
G|------9------9------9------9--------|
D|------------------------------------|
A|------------------------------------|
E|------------------------------------|


(Repeat Refrain and chorus 1)


Dm  Bb   C                       A
     Wohh But the problem is I'm so in love with two

Guitar 2:
e|--------------5--6--6-6-6--5----------------------------5----------------|
B|---5-6-----6------------------8--6--5----------5--6--8------5---8--6-----|
G|-7------7-------------------------------5-5-5--------------------------7-|
D|-------------------------------------------------------------------------|
A|-------------------------------------------------------------------------|
E|-------------------------------------------------------------------------|

(Repeat Post Chorus)


Bridge:
Dm            Gm             C
  Don't wanna fight An other Night
           A
Just wanna make it right C'mon
             Ebm              B
Oh my number one Oh my number two
            C#               Bb
Oh somebody tell me what I'm supposed to do
      Ebm
Oh my number one (my number one)
      B
Oh my number two  my number two)
         C#              Bb
Somebody tell me why I'm so in love with two


Chorus 2: Modulated from Dm to Ebm
Ebm                  B                          C#
  If I only could decide But I can't make up my mind
                    Bb
I'm breaking all my rules Because of you
Ebm                        B                          C#
  You can tell me it's not right And it tears me up inside
                       Bb
But the problem is I'm so in love with two
(Repeat)


Outro:
Ebm       B        C#                          Bb  Ebm(break)
  heyeh heyeh heyeh he he I choose the both of you

http://www.stormpages.com/mikailatown/home.htm
Suggest correction What's this?
You can suggest a correction to this tab. Community and Mods will review your correction and vote to approve or reject it.
comments
We did not receive enough feedback on this tab! Please rate:
print report bad tab
1 2 3 4 5
I want to post or [tab]
guest
You may want to rate the tab now too:
select rating
Please do not post tabs as comments. Select "correction" instead!