Oops, an error
Loading. Please wait.

Tribute To Buddy Holly Bass Tab

1 view 1 this week
no commentswrite comment
1 2 3 4 5
3 more votes to show rating
add to favorites
launch autoscroll
font size
0
reset
guitar tuner
Autoscroll
slow
fast
+/-
esc
set tempo
stop
Help us to improve Ultimate-Guitar.com Take our survey!
×
Author
Tribute To Buddy Holly
Single released by Mike Berry in 1961. Reached number 24 UK. Produced by
Music mogul the legendary Joe Meek. Banned by the BBC because apparently
It was too morbid!! Tab by bass50611. Nice and easy tune to play along to.
Symbols ‘.’ Are pause dots.

Intro:
  ‘.’          ‘.’
G|--------------------------------------------------------------------|
D|-2------------------------2---2------2---2------2---2------2---2----|
A|-------------4-----------------2-2--------2-2--------2-2--------2-2-|
E|--------------------------------------------------------------------|

Verse 1:
G|--------------------------------------------------------------|
D|2---2------2---2--------------------------4---4------4---4----|
A|-----2-2--------2-3-4---4------4---4-----------4-4--------4-4-|
E|-------------------------4-4--------4-4-----------------------|

G|-----------4-4--2-2--1-1----------------------------------------------|
D|-------------------------4-4---2---2------2---2-----------------------|
A|-2---2------------------------------2-2--------2-3-4---4-----4---4----|
E|------2-2-----------------------------------------------4-4-------4-4-|

G|--------------------------------4-4--2-2--1-1-----|
D|4---4------4---4------------------------------4-4-|
A|-----4-4--------4-4---2---2-----------------------|
E|---------------------------2-2--------------------|

Chorus 1:
G|------------------------------------------------------------------------|
D|-2---2------2---2--------------------------2---2------2---2-------------|
A|------2-2--------2-3-4---4------4---4-----------2-2--------2-3-4---4----|
E|--------------------------4-4--------4-4----------------------------4-4-|

G|------------------------------------------------------|
D|------------4---4-------------------------------------|
A|-4---4-----------4-4---2---2-----------7-7--------7-7-|
E|------4-4-------------------2-2---5---5------5---5----|

Interlude:              ‘.’
G|--------------------------------------------|
D|-----7-7-------------7-7--------------------|
A|-7-7-----7-7-----7-7--------7-7-7-7-7-7-7-7-|
E|-------------7-7----------------------------|

Spoken Bit:
G|--------------------------------------------------------------|
D|2---2------2---2--------------------------4---4------4---4----|
A|-----2-2--------2-3-4---4------4---4-----------4-4--------4-4-|
E|-------------------------4-4--------4-4-----------------------|

                                           ‘.’
G|---------------------------------------------------------------|
D|------------------------7-7-------------7-7--------------------|
A|-2---2------2-4-5-6-7-7-----7-7-----7-7--------7-7-7-7-7-7-7-7-|
E|------2-2-----------------------7-7----------------------------|

Chorus 2:
G|------------------------------------------------------------------------|
D|-2---2------2---2--------------------------2---2------2---2-------------|
A|------2-2--------2-3-4---4------4---4-----------2-2--------2-3-4---4----|
E|--------------------------4-4--------4-4----------------------------4-4-|

G|------------------------------------------------------|
D|------------4---4-------------------------------------|
A|-4---4-----------4-4---2---2-----------7-7--------7-7-|
E|------4-4-------------------2-2---5---5------5---5----|

                        ‘.’
G|--------------------------------------------|
D|-----7-7-------------7-7--------------------|
A|-7-7-----7-7-----7-7--------7-7-7-7-7-7-7-7-|
E|-------------7-7----------------------------|

Verse 2:
G|--------------------------------------------------------------|
D|2---2------2---2--------------------------4---4------4---4----|
A|-----2-2--------2-3-4---4------4---4-----------4-4--------4-4-|
E|-------------------------4-4--------4-4-----------------------|

G|-----------4-4--2-2--1-1----------------------------------------------|
D|-------------------------4-4---2---2------2---2-----------------------|
A|-2---2------------------------------2-2--------2-3-4---4-----4---4----|
E|------2-2-----------------------------------------------4-4-------4-4-|

G|--------------------------------4-4--2-2--1-1-----|
D|4---4------4---4------------------------------4-4-|
A|-----4-4--------4-4---2---2-----------------------|
E|---------------------------2-2--------------------|

Outro:                          (Repeat Outro To Fade/End)
G|-----------------------------------------|
D|-2---2------2---2------------------------|
A|------2-2--------2-3-4---4------4---4----|
E|--------------------------4-4--------4-4-|

Suggest correction
Give kudos to tab author, rate the tab!
1 2 3 4 5
comments
print report bad tab
guest
You may want to rate the tab now too:
select rating
Wanna post a correction for this tab? Suggest correction