Oops, an error
Loading. Please wait.

Stop tab

211 views 9 this week
no commentswrite comment
1 2 3 4 5
3 more votes to show rating
add to favorites
×
Save as Personal and add changes to this tab that will be seen only by you. Learn more ›
×
You can save this tab as Personal to edit and correct it or add notes. All changes will be seen only by you. Learn more »
launch autoscroll
font size
0
reset
how to read this tab
guitar tuner
edit
Autoscroll
slow
fast
+/-
esc
set tempo
stop
About this tab version
The complete song apart from the 24-bar organ solo. That is, the first 40 bars and the final 28 bars. This is a basic 3-chord vamp in the key of E. The chords are E7#9 (occasionally E7 or E), D and A. Was this info helpful? Yes No
------------------------------------------------------------------------------------------
                            STOP – Mike Bloomfield & Al Cooper
                                   (J Ragovoy/M Shuman)
                                   Super Session [1968]
------------------------------------------------------------------------------------------


Tabbed by: varannion
Email:     dm_hughes1@hotmail.com


Tuning: standard

                                                    | --- pm --- |
      E7
e|----------------------------------|------------------------------|
B|----------------------------------|------------------------------|
G|----------------------------------|------------------------------|
D|----------------------------------|------------------------------|
A|----------------------------------|-------------------5-----5h7--|
E|----------------------------------|----------------7-----7-------|


     | pm |             | -- pm -- |  | pm |            | ---- pm ---- |
      E7#9
e|-----------------------------------|-----------------------------------|
B|----------8\------8----------------|--------8\-------------------------|
G|----------7\------7----------------|--------7\------7------------------|
D|----------6\------6----------------|--------6\------6------------------|
A|----------7\------7-----5-----5h7--|--------7\--------------5-----5h7--|
E|----0--0-------------------7-------|--0----------------5/7-----7-------|


     | pm |            | -- pm --- |    | pm |           | --- pm --- |

e|-----------------------------------|---------------------------------|
B|----------8\------8----------------|--------8\------8----------------|
G|----------7\------7----------------|--------7\------7----------------|
D|----------6\------6----------------|--------8\------6----------------|
A|----------7\------------5-----5h7--|--------7\------7------5----5h7--|
E|----0--0--0----------7--0--7-------|--0--0--------------7----7-------|


     | pm |           | --- pm --- |  | pm |

e|-----------------------------------|---------------------------------|
B|----------8\------8----------------|--------8\-----------------------|
G|----------7\------7----------------|--------7\-----------------------|
D|----------6\------6----------------|--------6\-----------------------|
A|----------7\------7-----5-----5h7--|--------7\-----------------------|
E|----0--0--0----------7-----7-------|--0------------------------------|



                                        D           A     
e|----------12-----------------------|---------------------------------------|
B|----12----12-----------------------|---------------------------------------|
G|----14b16--------------------------|--14b16r14p12-14-12-14-14b16r14p12-14--|
D|-----------------------------------|---------------------------------------|
A|-----------------------------------|---------------------------------------|
E|-----------------------------------|---------------------------------------|


              ~~~~~~~~                           ~~~~~~~
      E7#9
e|---------------------------------12-------|-----------12-----------------------|
B|---------------------------------12--15b--|-b17----------15p12--15b17----------|
G|----12---------------------14b16----------|------------------------------------|
D|-------14-14-------(14)\------------------|------------------------------------|
A|------------------------------------------|------------------------------------|
E|------------------------------------------|------------------------------------|


        ~~~~~~~
                                   D          A
e|------------------------------|-------------6------------------|
B|----8p0----7b9r7--5-------5h--|-h7------5-8---9b11--5h7p5---5--|
G|------------------------------|-----7b9-------------------6----|
D|------------------------------|--------------------------------|
A|------------------------------|--------------------------------|
E|------------------------------|--------------------------------|
                         hold    hold    hold    hold   
                         bend    bend    bend    bend
       ~~~~
      E7#9
e|--------------------------7-------7-------7-------7--|
B|----5----/11\-----8-10b12-(10b)12-(10b)12-(10b)12----|
G|--------------7/9------------------------------------|
D|-----------------------------------------------------|
A|-----------------------------------------------------|
E|-----------------------------------------------------|


                    bss                                      ~~~~~~~~           ~~~~~~

e|-----------------------------------------------12--|---------------12-------------------|
B|----10b12r10p8-10-8-10-10p8---8-------------12-----|--15b17-----------15-12-15------x---|
G|----------------------------9---9-(9)/14b16--------|--------------------------------x---|
D|---------------------------------------------------|------------------------------------|
A|---------------------------------------------------|------------------------------------|
E|---------------------------------------------------|------------------------------------|


                                ~~~~~~
      D                    A
e|----------------12----12------------12--------------|
B|----15b17r15-------15----15b17---------15-12--------|
G|---------------------------------------------12-14--|
D|----------------------------------------------------|
A|----------------------------------------------------|
E|----------------------------------------------------|


      bss                                ~~~~~~
      E7#9
e|-------------------------------12------------12----12--|
B|----------------------------12----15b17---------15-----|
G|----12-14-12----------14b16----------------------------|
D|-------------14-14-------------------------------------|
A|-------------------------------------------------------|
E|-------------------------------------------------------|
           hold
           bend


e|------15b18-(15b)18-15b18----12h15p12----12----12--|
B|--------------------------------------15----15-----|
G|---------------------------------------------------|
D|---------------------------------------------------|
A|---------------------------------------------------|
E|---------------------------------------------------|
                                         slow   hold
                                         bend   bend
                                               ~~~~~~
                                              D              A
e|---------6-------------------------------|----------------------------------|
B|----8b11---8b11--5-8-5---5---5--(5)/-5b--|-b7----(5b)7r5p3-5h8p5---5h8p5----|
G|-----------------------6-----------------|-----------------------7-------7--|
D|-----------------------------------------|----------------------------------|
A|-----------------------------------------|----------------------------------|
E|-----------------------------------------|----------------------------------|
                                   slow   hold       release bend
                                   bend   bend       1/2 step
                       ~~~~~~             ~~~~~~     ~~~~~~~~        ~~
      E7#9
e|-----------------------------------|---------------------------------|
B|----8p5-5--(5)\-5/7b9---------10b--|-b12----(10b)12------(10b)11b12--|
G|-----------------------------------|---------------------------------|
D|---------------------------0-------|---------------------------------|
A|-----------------------------------|---------------------------------|
E|-----------------------------------|---------------------------------|
        release bend                                                        slow
        1/2 step                                                            bend
      ~~~~~~        ~~~~                            ~~~~~~~~
                                         D                             A
e|------------------------------------|--10-----------------10------------------10--------|
B|---(12)-(10b)11b12--------------10--|-----13-13b15-----------13-10------13b15----13-10--|
G|--------------------------12b14-----|---------------------------------------------------|
D|------------------------------------|---------------------------------------------------|
A|------------------------------------|---------------------------------------------------|
E|------------------------------------|---------------------------------------------------|


               ~~~~~~~~~~~~           ~~~~~~~~~~
      E7#9
e|--------10---------------10/12-12-----|-(12)--12--------12--------16-17-17b19--|
B|--------13b15------------------15b17--|-(17)-----15b17-----12/-----------------|
G|--------------------------------------|----------------------------------------|
D|--------------------------------------|----------------------------------------|
A|--------------------------------------|----------------------------------------|
E|--------------------------------------|----------------------------------------|


                                         ~~~~~~             ~~~~~~~~  ~~~~~~~~
                                                       D            A
e|---(19)r17p16-17--16--17p16----16p15\14-----------|-----------------------------------|
B|----------------------------17---------------15b--|-b17r15--------14--------------12--|
G|--------------------------------------------------|-------------------------14b16-----|
D|--------------------------------------------------|-----------------------------------|
A|--------------------------------------------------|-----------------------------------|
E|--------------------------------------------------|-----------------------------------|
                                                 hold
                                                 bend
           ~~~~                 ~~~~~~~~~~~        ~~~        ~~~ 
      E7#9
e|------------------------------------|----12---------12----------------|
B|-------------------12----15b17------|-------15b17-----(15b)17--r15----|
G|----14-13----14b16------------------|---------------------------------|
D|------------------------------------|---------------------------------|
A|------------------------------------|---------------------------------|
E|------------------------------------|---------------------------------|
                                                 hold
                                                 bend
                    ~~~~~~~~
                               D             A
e|--------------------------|-----------------------------------|
B|----7b9---(9)r7--5--------|--5h7--(7)\-----5-7b9-(7b)9r7p5----|
G|--------------------------|------------4/6-----------------6--|
D|--------------------------|-----------------------------------|
A|--------------------------|-----------------------------------|
E|--------------------------|-----------------------------------|


       ~~~~~~
      E7#9
e|-----------------------------|-----------------------------------|
B|-----------------------------|-----------------------------------|
G|----4------4b6---r4-4-3-2-1--|--2p1------------------------------|
D|-----------------------------|------2--2----0h2---2--------------|
A|-----------------------------|------------------4---4-2-4-2---2--|
E|-----------------------------|------------------------------4----|

                                     with pick & fingers
         ~~~~~~~~~~~~~~~~~~~
                                   D               A
e|------------------------------|---------------------------------|
B|------------------------------|--5/7--(7)--------7\5--(5)/------|
G|------------------------------|---------------------------------|
D|------------------------------|--5/7--(7)--------7\5--(5)/------|
A|----5/7----------------(7)\---|---------------------------------|
E|------------------------------|---------------------------------|

         let                  let
  | pm | ring  | --- pm --- | ring           | pm |         | - pm - |   pm
      E7#9
e|-----------------------------------------|---------------------------------------|
B|-----------------------------------------|--------8------------------------------|
G|------------------------------9----------|--------7---------------------------7--|
D|---------9--------------------9h11-------|--------6-----6------------------------|
A|---------9h11----------------------9h11--|-----------7--7-----------7------------|
E|----0-----------0--0--0----0-------------|--0--0-----------0--0--0-----0---------|




Organ solo


| E7#9             | D       A        | E7#9             | E7#9             |

| E7#9             | D       A        | E7#9             | E7#9             |

| E7#9             | D       A        | E7#9             | E7#9             |

| E7#9             | D       A        | E7#9             | E7#9             |

| E7#9             | D       A        | E7               | E7               |

| E7               | D       A        | E                | E                |


    with pick & fingers
                                |  let ring  |                 |  let ring  |    ~~~~~~~~
      E                          D           A                E
e|----------------------------|------5---------------------|-----------------------4-----|
B|----7/9--(9)----------------|--5/7------7--7\5--(5)-5-5--|--5/9--(9)------x------------|
G|----------------------------|----------------------------|-------------------2/4----4--|
D|----7/9--(9)----------------|--5/7----7-7--7\5--(5)-5-5--|--5/9--(9)-------------------|
A|----------------------------|----------------------------|-----------------------------|
E|----------------------------|----------------------------|--------------0--------------|

                                | let ring |              | let ring | | - let ring - |
    ~~~~~                        ~~~~~~~~~~ 
                                                            D           A
e|----4--4--------------------|----4------------x--------|----2-----------5-------5-----|
B|----------------------------|-----------------x--------|--------0---------------------|
G|-------4----------------2/--|-/4---4----------x----1/--|-/2---2---2-2/6----6-6----6\--|
D|----------------------------|--------------------------|------------------------------|
A|----------------------------|--------------------------|------------------------------|
E|----------------------------|--------------------------|------------------------------|

                                                                        with pick
    let ring let ring | let ring  |       | -- let ring --  |           
      E
e|------4-----2------0--------0----|---------4--------4-----4/12-12--|--14/16-------------|
B|---------------------------------|---------------------------------|--15/17-------------|
G|---\4---4\2----0h1------------0--|-(0)-2/4----4--4-----4--4/13-13--|--------------------|
D|----------------------2-(2)------|---------------------------------|--------------------|
A|---------------------------------|---------------------------------|--------------------|
E|---------------------------------|---------------------------------|--------------------|



      D            A                E
e|--------16\14----14\12----12\--|-\10----10\9------9\7----7\5--|--4----4\2----0------0---|
B|--------17\15----15\14----14\--|-\12----12\10----10\9----9\7--|--5----5\3----3\2----0---|
G|-------------------------------|------------------------------|-------------------------|
D|-------------------------------|------------------------------|-------------------------|
A|-------------------------------|------------------------------|-------------------------|
E|-------------------------------|------------------------------|-------------------------|

    with pick & fingers
     | ---------------- let ring ----------------- |
                                     D                  A
e|---------4----4-----4--------4--|-------2-----2-------5-----3-----|
B|----0------------------0--------|---------------------------------|
G|----2/4----------4--------4-----|--4/2-----2-----2/6-----6--4--4--|
D|--------------------------------|---------------------------------|
A|--------------------------------|---------------------------------|
E|--------------------------------|---------------------------------|

             let                    let         let                       let
     | pm |  ring          pm       ring     pm ring             pm       ring  pm
      E
e|----------------------------------------|-----------------------------------------------|
B|----------------------------------------|-----------------------------------------------|
G|----------9-----------------------9-----|-----9-----------9-------------9--------9------|
D|----------9h11--------9-----------9h11--|-----9h11--------9-------------9h11--------11--|
A|-------2--------9h11--------9h11--------|-----------9h11----------9h11------------------|
E|----0--0-----------------0--------------|--0-------------------0--------------0---------|

            let               let       let                let     let
            ring              ring      ring               ring    ring
                                                   D               A
e|----------------------------------------------|--------------------------------------|
B|----------9-----------------------------------|--------------------------------------|
G|----------9h11--------------7---------7----x--|----------7----7--5-------------------|
D|----9h11--------9h11--------7h9-------7h9--x--|----------7h9--7--5h7-------5h7-------|
A|----------------------9h11-------7h9----------|-----7h9---------------5h7-------5h7--|
E|----------------------------------------------|--0-----------------------------------|


      pm                              | pm |                   | - pm -- |
      E7#9
e|----------------------------------|--------------------------------------|
B|---------8------x--8--x-----------|---------------------8----------------|
G|---------7------x--7--x-----------|--------7------------7----------------|
D|---------6------x--6--x-----------|--------6------------6----------------|
A|---------7------x--7--x-----------|--------7------------------------5/7--|
E|----0------------------------5h7--|--0--0---------------------5--7-------|


     | pm |             | ---- pm ----- |   | pm |             | --- pm --- |
                                             D            A
e|----------------------------------------|-----------------------------------|
B|----------8--x----8---------------------|--------8------x--8----------------|
G|----------7--x----7---------------------|--------7------x--7----------------|
D|----------6--x----6---------------------|--------6------x--6----------------|
A|-----------------------------5-----5h7--|--------7------x--------5-----5h7--|
E|----0--0---------------5--7-----7-------|--0--0---------------5-----7-------|


     | pm |              | --- pm --- |   | pm |              | --- pm ---- |
      E7#9
e|--------------------------------------|------------------------------------|
B|----------8----------8----------------|--------8----------8----------------|
G|----------7----------7----------------|--------7----------7----------------|
D|----------6----------6----------------|--------6----------6----------------|
A|----------7----------------5-----5h7--|--------7----------------5-----5h7--|
E|----0--0----------------7-----7-------|--0--0----------------7-----7-------|


     | pm |              | --- pm --- |    | pm |                 bss pm
                                           D             A
e|--------------------------------------|---------------------------------|
B|--------------------------------------|----------------------2----------|
G|----------7--x--x----7----------------|--------x----7-------------------|
D|----------6--x--x----6----------------|--------x----6-------------------|
A|----------7--x--x----7-----5-----5h7--|--------x----7--0--0-----3--0h2--|
E|----0--0-------------0--7-----7-------|--0--0---------------------------|


     | pm |                     | - pm - |  | pm |                 
      E7#9
e|----------------------------------------|---------------------------------|
B|----------------------8----8------------|--------8------8----8------------|
G|----------7------7----7----7------------|--------7------7----7------------|
D|----------6------6----6----6---------5--|--------6------6----6------------|
A|----------7------7----7----7----5h7-----|--------7------7----7------------|
E|----0--0--------------------------------|--0--0---------------------------|






************************************

| h   Hammer-on
| \   Slide down
| /   Slide up
| p   Pull-off
| r   Release
| b   Bend
| ~   Vibrato
| (n) Ghost note
| x   Dead note
| bss Bend slightly sharp
| pb  Pre-bend
| co  Cut-off
| pr  Partial release


************************************

            
            
Suggest correction
Creating personal tab
Creating personal tab
You can edit any tab online and save it as your Personal.

You can edit, replace or remove any tab part or add personal notes – all changes will be seen only by you.

Personal tabs can be accessed anytime from any device, even offline.
Learn more »
Give kudos to tab author, rate the tab!
1 2 3 4 5
comments
print report bad tab
guest
You may want to rate the tab now too:
select rating
Wanna post a correction for this tab? Suggest correction