Oops, an error
Loading. Please wait.

Betcha Cant Play This Tab

version 1
version 1

Whole song

Interactive

3,301 views 1 this week
3 commentsread comments
1 2 3 4 5
x 5
add to favorites
launch autoscroll
font size
0
reset
how to read this tab
guitar tuner
Autoscroll
slow
fast
+/-
esc
set tempo
stop
Help us to improve Ultimate-Guitar.com Take our survey!
×
Author
Mike Campese
Betcha Can't Play This

Tabbed by Stupidlife

e----------7----------11------------14----16----14----12---11---9---9---7-----|
B--------5----------9------------12----12----12----12----9----9---5---5-------|
G------8----------11----------13----------------------------------------------|
D----6----------9----------11-------------------------------------------------|
A--4----------7----------9----------------------------------------------------|
E-----------------------------------------------------------------------------|


e----7/9-7----7--------------------------------------------|
B--5-------10---10-9-7-------------------------------------|
G----------------------9-8-6---/4-6-4---4------------------|
D-------------------------------------7---7-6-4------------|
A-----------------------------------------------7-6-4------|
E----------------------------------------------------------|

25/11/2008
Suggest correction
comments
print report bad tab
3 comments total.
0 reply
HellzAngel713 16 Jan 20, 2009 06:21 PM

YESS!!! Awesome Man!! thanks!! this lick is so harmonic. thanks :)

0 reply
hootie37 100 Apr 02, 2011 12:14 PM

I love this!!! :))))))

0 reply
anonymousperson 906 Aug 13, 2011 01:24 PM

Excellent job this is a beautiful melody, I'm glad someone tabbed it!

guest
You may want to rate the tab now too:
select rating
Wanna post a correction for this tab? Suggest correction