Oops, an error
Loading. Please wait.

I Got The Drop On You tab

79 views 1 this week
no commentswrite comment
1 2 3 4 5
3 more votes to show rating
add to favorites
×
Save as Personal and add changes to this tab that will be seen only by you. Learn more ›
×
You can save this tab as Personal to edit and correct it or add notes. All changes will be seen only by you. Learn more »
launch autoscroll
font size
0
reset
how to read this tab
guitar tuner
edit
Autoscroll
slow
fast
+/-
esc
set tempo
stop
Great song from a great album! I'm combining both guitars here. 
This is all by ear, so any and all corrections are welcome... enjoy!

-e_b

[Intro]

e|---------------------------------------------------------------------------|
B|---------------------------------------------------------------------------|
G|---------------------------------------------------------------------------| 
D|----6--------6--------4-------4---------6---------6---------4--------------| 
A|--4-----------(0)---2-----------(0)---4-------------(0)---2----------------|
E|-----(0)---7-----------(0)---5------------(0)---7-------------(0)----------|


[Verse 1]

e|---------------------------------------------------------------------------|
B|---------------------------------------------------------------------------|
G|---------------------------------------------------------------------------| 
D|---4-----------6---------6---------4---------4------------6---------6------| 
A|-----(0)-----4-------------(0)---2-------------(0)------4-------------(0)--|
E|--5--------------(0)---7-------------(0)---5----------------(0)---7--------|
     I got the drop on you.                    But it was easy Japanesey 

e|---------------------------------------------------------------------------|
B|---------------------------------------------------------------------------|
G|---------------------------------------------------------------------------| 
D|----4-------4----------6----------6----------------4-----------------------| 
A|--2-----------(0)----4--------------(0)----------2-------------------------|
E|-----(0)---5-------------(0)----7--------------------(0)-------------------|
                When I chase your lies in the light.

e|--------------------------------4--2-----2---------------------------------|
B|-----------------------------5---------------------------------------------|
G|--------------------------------4--3-----2---------------------------------| 
D|---4------------------6------7-------4-----4-------------------------------| 
A|-----(0)------------4------------------------(0)---------------------------|
E|--5---------------------(0)-----------(0)----------------------------------|
    Don't you look so cutesy 


[Chorus 1]

e|---------------------------------------------------------------------------|
B|---------------------------------------------------------------------------|
G|---------------------------------------------------------------------------|
D|--------2-4-4------2-4-4------2-4-4----------------------------------------|
A|------4----------4----------4----------------------------------------------|
E|--0-2----------2----------2------------------------------------------------|
                 Down in the basement.     

e|---------------------------------------------------------------------------|
B|---------------------------------------------------------------------------|
G|---------------------------------------------------------------------------|
D|------2-4-4------------6---6------6---6------------4---4--------4---4------|
A|----4----------------4---4------4---4------------2---2--------2---2--------|
E|--2----------------4----------7----------------5------------5--------------|
          Where your captives   scratch and they cry

e|---------------------------------------------------------------------------|
B|---------------------------------------------------------------------------|
G|---------------------------------------------------------------------------|
D|--------2-4-4------2-4-4------2-4-4----------------------------------------|
A|------4----------4----------4----------------------------------------------|
E|--0-2----------2----------2------------------------------------------------|
                 Rattling the chains and 

e|---------------------------------------------------------------------------|
B|---------------------------------------------------------------------------|
G|---------------------------------------------------------------------------|
D|------2-4-4------------2-4-4--------2-4-4----------------------------------|
A|----4----------------2------------2----------------------------------------|
E|--2----------------4------------4------------------------------------------|
          Where they long to snap the bonds 

e|---------------------------------------------------------------------------|
B|---------------------------------------------------------------------------|
G|--------------------1-1--------------1-1-----------------------------------|
D|------------------4----------------4---------------------------------------|
A|----------------2----------------2-----------------------------------------|
E|--------------4----------------4-------------------------------------------|
    and abscond out to the night 


[Verse 2]

e|------------9-----9-----7-----7-----6-----6--------------------------------|
B|--------------7-----7-----7-----7-----7-----7------------------------------|
G|----------------6-----------6-----------6----------------------------------|
D|---------------------------------------------------------------------------|
A|---------------------------------------------------------------------------|
E|---------------------------------------------------------------------------|
    I got the drop on     you.   

e|--5-----5---------9-----9------------7-----7-------6-----6-----------------|
B|----7-----7---------7-----7------------7-----6-------7-----7---------------|
G|------6---------------6------------------6-------------6-------------------|
D|---------------------------------------------------------------------------|
A|---------------------------------------------------------------------------|
E|---------------------------------------------------------------------------|
          Cause I'm sharp-eyed and I'm shameless 


e|--5-----5---------9-----9-----7-----7---------6-----6----------------------|
B|----7-----7---------7-----7-----7-----6---------7-----7--------------------|
G|------6---------------6-----------6---------------6------------------------|
D|---------------------------------------------------------------------------|
A|---------------------------------------------------------------------------|
E|---------------------------------------------------------------------------|
          Well, you knocks me   out of your mind. 

e|-----5-----5------9-----9-----7-----7-----6-----6-----5-----5--------------|
B|-------7-----7------7-----7-----7-----6-----7-----7-----7-----7------------|
G|---------6------------6-----------6-----------6-----------6----------------|
D|---------------------------------------------------------------------------|
A|---------------------------------------------------------------------------|
E|---------------------------------------------------------------------------|
    No pity for the placeless


[Chorus 2]

e|---------------------------------------------------------------------------|
B|---------------------------------------------------------------------------|
G|---------------------------------------------------------------------------|
D|--------2-4-4------2-4-4-------2-4-4----2-2-2-4-4--------------------------|
A|------4----------4-----------4----------4-4-4-4-4--------------------------|
E|--0-2----------2-----------2------------2-2-2-2-2--------------------------|
                 Sorry isn't good enough 

e|---------------------------------------------------------------------------|
B|---------------------------------------------------------------------------|
G|---------------------------------------------------------------------------|
D|--4-4-4-4-4--4--4-4---4-4--4-4-4-4-4-4-------------------------------------| 4x
A|--4-4-4-4-4--4--4-4---4-4--4-4-4-4-4-4-------------------------------------|
E|--2-2-2-2-2--2--2-2---2-2--2-2-2-2-2-2-------------------------------------|
            Sorry isn't good enough 

[Verse 3]

e|---------------------------4--2----2---------------------------------------|
B|------------------------5--------------------------------------------------|
G|---------------------------4--3----2---------------------------------------| 
D|---------------6--------7-------4----4-------------------------------------| 
A|-------------4------------------------(0)----------------------------------|
E|-----------------(0)-------------(0)---------------------------------------|
    I got the drop on you.           

e|---------------------------------------------------------------------------|
B|---------------------------------------------------------------------------|
G|---------------------------------------------------------------------------| 
D|-----------6-----------------6---------4-----------------------------------| 
A|---------4---------------------(0)---2-------------------------------------|
E|------------(0)------------7-------------(0)-------------------------------|
    In the last frame of the picture 

e|----------------------------4-----6------5------------4--------------------|
B|------------------------5--------------------------------------------------|
G|----------------------------4-----3------2------------2--------------------|
D|---4------------6-------7---------------------------------------6----------|
A|-----(0)------4---------------------------------------------------(0)------|
E|--5---------------(0)-----------------------------------------7------------|
        Well, I rode that I.R.T. out.   No pity in the mixture

e|------------------------------------4--2-------2---------------------------|
B|---------------------------------5-----------------------------------------|
G|------------------------------------4--3-------2---------------------------|
D|----4---------4-----------6------7--------4---------4---------6------------|
A|--2-------------(0)-----4-----------------------------(0)-----4------------|
E|------(0)---5---------------(0)------------(0)-----------------------------|
         No   pity in the mixture.            No pity in the mixture.

************************************

| x   Dead note
| g   Grace note
| (n) Ghost note
| h   Hammer-on
| p   Pull-off
| r   Release
| >   Accented note
| t   Tapping
| b   Bend
| br  Bend release
| pb  Pre-bend
| pbr Pre-bend release
| /   Slide up
| \   Slide down
| ~   Vibrato
| s   Slap
| P   Pop
| PM  Palm mute
| TR  Trill
| N   Tremolo

************************************
Suggest correction
Creating personal tab
Creating personal tab
You can edit any tab online and save it as your Personal.

You can edit, replace or remove any tab part or add personal notes – all changes will be seen only by you.

Personal tabs can be accessed anytime from any device, even offline.
Learn more »
Give kudos to tab author, rate the tab!
1 2 3 4 5
comments
print report bad tab
guest
You may want to rate the tab now too:
select rating
Wanna post a correction for this tab? Suggest correction