Oops, an error
Loading. Please wait.

Laki Sa Layaw Bass Tab

version 1
version 1

Whole song

Interactive

4,372 views 12 this week
no commentswrite comment
1 2 3 4 5
please rate
add to favorites
launch autoscroll
font size
0
reset
guitar tuner
Autoscroll
slow
fast
+/-
esc
set tempo
stop
Help us to improve Ultimate-Guitar.com Take our survey!
×
Author
. . . Para sa SIESTA!!!

Intro: 
G|------------|
D|------------|
A|------2-0h2-|
E|-0h2h3------|

G|--------------------------|
D|-----0h2-2--0-2--22—--0h2-|
A|-2---------2-------2------|
E|--333---------------3-----|

Verse:
G|----------------------------------|
D|----------------------------------|
A|---77-77-------------------77-—77-|
E|-/7--7----777-777-333-555-7---7---| 

G|----------------------------------------------|
D|----------------------------------------------|
A|--77-77-------------------77-—------------6-7-|
E|-7--7----777-777-333-555-7----2-33---4-55-----|

G|---------------------------------|
D|---------------------------------|
A|--77-77-------------------77-—77-|
E|-7--7----777-777-333-555-7---7---| 

G|----------------------------------|
D|----------------------------------|
A|--77-77-------------------77-—----|
E|-7--7----777-777-333-555-7----2-3-|

Pre-Chorus:
G|-----------------------------------------|
D|-----------------------------------------|
A|-------------44-44-44-44---------7-------|
E|-44-44-44-44-------------5---7-------2-3-|

G|-----------------------------------|
D|-----------------------------------|
A|-------------44-44-44-44---------7-|
E|-44-44-44-44-------------5---7-----|

Chorus:
G|-----------------|
D|-----------------|
A|-----------------|
E|-555-555-777-777-| 3x
G|--------------------|
D|--------------------|
A|--------------2-0h2-|
E|-555-555-0h2h3------|

Adlib:
G|----------------------------------|
D|----------------------------------|
A|---77-77-------------------77-—77-|
E|-/7--7----777-777-333-555-7---7---| 

G|-------------------------------------|
D|-------------------------------------|
A|--77-77------------------------2-0h2-|
E|-7--7----777-777-333-555-0h2h3-------|

G|--------------------------|
D|-----0h2-2--0-2--22—--0h2-|
A|-2---------2-------2------|
E|--333---------------3-----|

Verse:
G|---------------------------------|
D|---------------------------------|
A|--77-77-------------------77-—77-|
E|-7--7----777-777-333-555-7---7---| 

G|----------------------------------|
D|----------------------------------|
A|--77-77-------------------77-—----|
E|-7--7----777-777-333-555-7----2-3-|

Pre-Chorus:
G|-----------------------------------------|
D|-----------------------------------------|
A|-------------44-44-44-44---------7-------|
E|-44-44-44-44-------------5---7-------2-3-|

G|-----------------------------------|
D|-----------------------------------|
A|-------------44-44-44-44---------7-|
E|-44-44-44-44-------------5---7-----|

Chorus:
G|-----------------|
D|-----------------|
A|-----------------|
E|-555-555-777-777-| 3x

G|--------------------|
D|--------------------|
A|--------------2-0h2-|
E|-555-555-0h2h3------|
Suggest correction
Give kudos to tab author, rate the tab!
1 2 3 4 5
comments
print report bad tab
guest
You may want to rate the tab now too:
select rating
Please do not post tabs as comments. Select "correction" instead!