Oops, an error
Loading. Please wait.

Fifteen Minutes Bass Tab

64 views 15 this week
no commentswrite comment
1 2 3 4 5
3 more votes to show rating
add to favorites
launch autoscroll
font size
0
reset
guitar tuner
Autoscroll
slow
fast
+/-
esc
set tempo
stop
Help us to improve Ultimate-Guitar.com Take our survey!
×
Author
Difficulty
novice
About this tab version
The tab isn't on the site yet, this is the first. Was this info helpful? Yes No
Hello, I've noticed that this tab was missing, so I took the liberty of figuring it out for you guys. It's a 
pretty simple song that's not that much different from the chords, but there is a fill here and there. Hope 
you all enjoy and comment anything that seems wrong.

Intro:
No bass line


Verse:

      What if I told you that the world was gonna end and you had fifteen
             G |---------------|-----------------------|----------------|
             D |---------------|-----------------------|----------------|
             A |---------------|-----------------------|----------------|
             E |3---3-5-7---7-7|12-12-12-12-12-12-12-0-|5-7-------------|
                1   2 + 3   4 + 1  +  2  +  3  +  4  +  1 +  
                on "told"
               minutes to spend with me or your friends, would you take                    
             G |---------------|-----------------------|----------------|
             D |---------------|-----------------------|----------------|
             A |---------------|-----------------------|----------------|
             E |3---3-5-7---7-7|12-12-12-12-12-12-12-0-|5-7-------------|
                1   2 + 3   4 + 1  +  2  +  3  +  4  +  1 +  
               the first bus over to my house, or would you take the
             G |---------------|-----------------------|----------------|
             D |---------------|-----------------------|----------------|
             A |---------------|-----------------------|----------------|
             E |3---3-5-7---7-7|12-12-12-12-12-12-12-0-|5-7-------------|
                1   2 + 3   4 + 1  +  2  +  3  +  4  +  1 +  
               last plane over the west coast, you see it's
             G |---------------|-----------------------|----------------|
             D |---------------|-----------------------|----------------|
             A |---------------|-----------------------|----------------|
             E |3---3-5-7---7-7|12-12-12-12-12-12-12-0-|5-7-------------|
                1   2 + 3   4 + 1  +  2  +  3  +  4  +  1 +  
Chorus:

You see it's, times like these with a change of heart, it was over and done before we had a start
            G|----------------|----------------|----------------|----------------|
            D|----------------|----------------|2-2-2-2-2-2-2-2-|2-2-2-2-2-2-2-2-|
            A|----------------|2-2-2-2-2-2-2-2-|----------------|----------------|
            E|3-3-3-3-3-3-3-3-|----------------|----------------|----------------|
              1 + 2 + 3 + 4 +  1 + 2 + 3 + 4 +  1 + 2 + 3 + 4 +  1 + 2 + 3 + 4 +
              on "times"       on "change"      on "over"
   It goes on in my head, and I'll wind up dead singing, sha la la la la la la la la whoo
         G|----------------|----------------|----------------|       |----------------|
         D|----------------|----------------|14-14-14-14-14-14-14-14-|14-14-14-14-14-14-14-14-|
         A|----------------|3-3-3-3-3-3-3-3-|----------------|       |----------------|
         E|3-3-3-3-3-3-3-3-|----------------|----------------|       |----------------|
           1 + 2 + 3 + 4 +  1 + 2 + 3 + 4 +  1  +  2  +  3  +  4  +   1  +  2  +  3  +  4  +
           on "on"          on "I'll"        on "sha"
Bridge:
             G |---------------|-----------------------|----------------|
             D |---------------|-----------------------|----------------|
             A |---------------|-----------------------|----------------|
             E |3---3-5-7---7-7|12-12-12-12-12-12-12-0-|5-7-------------|
                1   2 + 3   4 + 1  +  2  +  3  +  4  +  1 +  
             G |---------------|-----------------------|
             D |---------------|-----------------------|
             A |---------------|-----------------------|
             E |3---3-5-7---7-7|12-12-12-12-12---------|
                1   2 + 3   4 + 1  +  2  +  3      (drum fill)
               
Verse 2:
 What if all the stars came crashing to the ground and explosions and
              G |---------------|-----------------------|----------------|
              D |---------------|-----------------------|----------------|
              A |---------------|-----------------------|----------------|
              E |3---3-5-7---7-7|12-12-12-12-12-12-12-0-|5-7-------------|
                 1   2 + 3   4 + 1  +  2  +  3  +  4  +  1 +  
                on "stars"
                fires started happening all around, would you be-
             G |---------------|-----------------------|----------------|
             D |---------------|-----------------------|----------------|
             A |---------------|-----------------------|----------------|
             E |3---3-5-7---7-7|12-12-12-12-12-12-12-0-|5-7-------------|
                1   2 + 3   4 + 1  +  2  +  3  +  4  +  1 +  
                -lieve me and come home or sit back, let it be
             G |---------------|-----------------------|----------------|
             D |---------------|-----------------------|----------------|
             A |---------------|-----------------------|----------------|
             E |3---3-5-7---7-7|12-12-12-12-12-12-12-0-|5-7-------------|
                1   2 + 3   4 + 1  +  2  +  3  +  4  +  1 +  
                I can't do this by myself, alright
             G |---------------|-----------------------|----------------|
             D |---------------|-----------------------|----------------|
             A |---------------|-----------------------|----------------|
             E |3---3-5-7---7-7|12-12-12-12-12-12-12-0-|5-7-------------|
                1   2 + 3   4 + 1  +  2  +  3  +  4  +  1 +  
Guitar solo:
            G|----------------|----------------|----------------|----------------|
            D|----------------|----------------|2-2-2-2-2-2-2-2-|2-2-2-2-2-2-2-2-|
            A|----------------|2-2-2-2-2-2-2-2-|----------------|----------------|
            E|3-3-3-3-3-3-3-3-|----------------|----------------|----------------|
              1 + 2 + 3 + 4 +  1 + 2 + 3 + 4 +  1 + 2 + 3 + 4 +  1 + 2 + 3 + 4 +
            G|----------------|----------------|----------------|       |----------------|
            D|----------------|----------------|14-14-14-14-14-14-14-14-|14-14-14-14-14-14-14-14-|
            A|----------------|3-3-3-3-3-3-3-3-|----------------|       |----------------|
            E|3-3-3-3-3-3-3-3-|----------------|----------------|       |----------------|
              1 + 2 + 3 + 4 +  1 + 2 + 3 + 4 +  1  +  2  +  3  +  4  +   1  +  2  +  3  +  4  +

Verse 3:
No bass playing for "What if I told you that the world was gonna end, and you had fifteen minutes to spend
with me or your friends, I guess we..."
     I guess we don't need to use the phone, I don't need your
             G |---------------|-----------------------|----------------|
             D |---------------|-----------------------|----------------|
             A |---------------|-----------------------|----------------|
             E |3---3-5-7---7-7|12-12-12-12-12-12-12-0-|5-7-------------|
                1   2 + 3   4 + 1  +  2  +  3  +  4  +  1 +  
                on "don't
                answer, I don't need your answer I'll be spending it alone.
             G |---------------|
             D |---------------|
             A |---------------|
             E |3---3-5-7---7-7|
                1   2 + 3   4 + 

Hope you enjoy!
Suggest correction
Give kudos to tab author, rate the tab!
1 2 3 4 5
comments
print report bad tab
guest
You may want to rate the tab now too:
select rating
Wanna post a correction for this tab? Suggest correction