Oops, an error
Loading. Please wait.

Fifteen Minutes bass

version 2
version 2

Whole song

  • The tab isn't on the site yet, this is the first.
169 views 18 this week
1 commentread comment
1 2 3 4 5
3 more votes to show rating
add to favorites
×
Save as Personal and add changes to this tab that will be seen only by you. Learn more ›
×
You can save this tab as Personal to edit and correct it or add notes. All changes will be seen only by you. Learn more »
launch autoscroll
font size
0
reset
guitar tuner
edit
Autoscroll
slow
fast
+/-
esc
set tempo
stop
Author
Difficulty
[Intro] 
G|---------------------------------------------------------------------------|
D|-5--5--5--5--5--5--5--5-5-5-5-5-5------------------------------------------|
A|---------------------------------------------------------------------------|
E|---------------------------------------------------------------------------|
(The song has no bass in the intro, but why not join in.)

[Verse]
G|-----------------------------------7---------------------------------7-----|
D|--5--5-5-9--9-9----14-14-14-14-7-9-- 5--5-5-9--9-9---14-14-14-14-7-9-------|
A|----------------7----------------------------------7-----------------------|
E|---------------------------------------------------------------------------|

G|-----------------------------------7---------------------------------7-----|
D|--5--5-5-9--9-9----14-14-14-14-7-9-- 5--5-5-9--9-9---14-14-14-14-7-9-------|
A|----------------7----------------------------------7-----------------------|
E|---------------------------------------------------------------------------|

[Chorus]
G|--------------------------------------------------------------------------------------|
D|-5-5-5-5-5-5-5-5-10-10-10-10-10-17-15-14-14-14-14-14-14-14-14-14-14-14-14-14-14-14-14-|
A|--------------------------------------------------------------------------------------|
E|--------------------------------------------------------------------------------------|

G|--------------------------------------------------------------------------------------|
D|-5-5-5-5-5-5-5-5-10-10-10-10-10-17-15-14-14-14-14-14-14-14-14-14-14-14-14-14-14/20\14-|
A|--------------------------------------------------------------------------------------|
E|--------------------------------------------------------------------------------------|

[Interlude]
G|-----------------------------------7---------------------------------------|
D|--5--5-5-9--9-9----14-14-14-14-7-9-- 5--5-5-9--9-9---14-14-14-14h15p14h15p-|
A|----------------7----------------------------------7-----------------------|
E|---------------------------------------------------------------------------|

[Verse]
G|-----------------------------------7---------------------------------7-----|
D|--5--5-5-9--9-9----14-14-14-14-7-9-- 5--5-5-9--9-9---14-14-14-14-7-9-------|
A|----------------7----------------------------------7-----------------------|
E|---------------------------------------------------------------------------|

G|-----------------------------------7---------------------------------7-----|
D|--5--5-5-9--9-9----14-14-14-14-7-9-- 5--5-5-9--9-9---14-14-14-14-7-9-------|
A|----------------7----------------------------------7-----------------------|
E|---------------------------------------------------------------------------|

[Chorus]
G|--------------------------------------------------------------------------------------|
D|-5-5-5-5-5-5-5-5-10-10-10-10-10-17-15-14-14-14-14-14-14-14-14-14-14-14-14-14-14-14-14-|
A|--------------------------------------------------------------------------------------|
E|--------------------------------------------------------------------------------------|

G|--------------------------------------------------------------------------------------|
D|-5-5-5-5-5-5-5-5-10-10-10-10-10-17-15-14-14-14-14-14-14-14-14-14-14-14-14-14----------|
A|--------------------------------------------------------------------------------------|
E|--------------------------------------------------------------------------------------|

[Outro]
G|---------------------------------------------------------------------------|
D|---------------------------------------------------------------------------|
A|---------------------------------------------------------------------------|
E|---------------------------------------------------------------------------|

G|-----------------------------------7---------------------------------------|
D|--5--5-5-9--9-9----14-14-14-14-7-9-- 5--5-5-9--9-9-------------------------|
A|----------------7----------------------------------7-----------------------|
E|---------------------------------------------------------------------------|


************************************

| /  Slide up
| \  Slide down
| h  Hammer-on
| p  Pull-off

************************************

            
            
Suggest correction
Creating personal tab
Creating personal tab
You can edit any tab online and save it as your Personal.

You can edit, replace or remove any tab part or add personal notes – all changes will be seen only by you.

Personal tabs can be accessed anytime from any device, even offline.
Learn more »
Give kudos to tab author, rate the tab!
1 2 3 4 5
comments
print report bad tab
1 comment total.
0 reply
miniyodadudei 56 Apr 26, 2017 09:50 AM

Why did you move it up an octave?

guest
You may want to rate the tab now too:
select rating
Wanna post a correction for this tab? Suggest correction