Oops, an error
Loading. Please wait.

Like A Star bass

version 2
version 2

Whole song

  • I've redone the original tab on this site to inclu... Show more
79 views 9 this week
no commentswrite comment
1 2 3 4 5
2 more votes to show rating
add to favorites
×
Save as Personal and add changes to this tab that will be seen only by you. Learn more ›
×
You can save this tab as Personal to edit and correct it or add notes. All changes will be seen only by you. Learn more »
launch autoscroll
font size
0
reset
guitar tuner
edit
Autoscroll
slow
fast
+/-
esc
set tempo
stop
About this tab version
I've redone the original tab on this site to include correct fill ins that weren't in the first tab as well as added rhythm and indicated the measures. I also added lyrics and how to play with the lyrics. Was this info helpful? Yes No
Like a Star by Mike Krol


[Verse]
  Four point two, light years away, I was slow to begin, but I'm ready to fade
G|----------------|----------------|----------------|----------------|
D|----------------|----------------|2-2-2-2-2-2-2-2-|----------2-----|
A|----------------|3-3-3-3-5-5-5-5-|----------------|2-2-2-2-2---5-3-|
E|3-3-3-3-3-3-3-3-|----------------|----------------|----------------|
  1 + 2 + 3 + 4 +  1 + 2 + 3 + 4 +  1 + 2 + 3 + 4 +  1 + 2 + 3 + 4 +
  On "Four"        On "Light"       On "Slow"        On "Ready"
  I've been alone now, for my whole life
G|----------------|----------------|----------------|----------------|
D|----------------|----------------|2-2-2-2-2-2-2-2-|----------2-----|
A|----------------|3-3-3-3-5-5-5-5-|----------------|2-2-2-2-2---5-3-|
E|3-3-3-3-3-3-3-3-|----------------|----------------|----------------|
  1 + 2 + 3 + 4 +  1 + 2 + 3 + 4 +  1 + 2 + 3 + 4 +  1 + 2 + 3 + 4 +
  On "I've"        On "for"
  And I see black while you see white, in the dark, I'll burn a light for you
G|----------------|----------------|----------------|----------------|
D|----------------|----------------|2-2-2-2-2-2-2-2-|----------2-----|
A|----------------|3-3-3-3-5-5-5-5-|----------------|2-2-2-2-2---5-3-|
E|3-3-3-3-3-3-3-3-|----------------|----------------|----------------|
  1 + 2 + 3 + 4 +  1 + 2 + 3 + 4 +  1 + 2 + 3 + 4 +  1 + 2 + 3 + 4 +
  On "And"         On "while"       End of "white"   On "I'll" 
And that way, you can follow me home
G|----------------|----------------|----------------|----------------|
D|----------------|----------------|2-2-2-2-2-2-2-2-|----------2-----|
A|----------------|3-3-3-3-5-5-5-5-|----------------|2-2-2-2-2---5-3-|
E|3-3-3-3-3-3-3-3-|----------------|----------------|----------------|
  1 + 2 + 3 + 4 +  1 + 2 + 3 + 4 +  1 + 2 + 3 + 4 +  1 + 2 + 3 + 4 +
  On "And"         End of "way"     End of "home"
[Chorus]
  I'm like a star, I'm burning out  I try to shine   But it's never  
                   fast                              gonna last
G|----------------|----------------|----------------|----------------|
D|----------------|----------------|2-2-2-----------|----------------|
A|----------------|0-0-0-----------|----------------|3-3-3-3-3-3-3-3-|
E|3-3-3-----------|----------------|----------------|----------------|
  1 + 2            1 + 2            1 + 2            1 + 2 + 3 + 4 +
  On "I'm"         On "I'm"         On "I"           On "But"
  Can't you see you're just letting me down
G|----------------|----------------|----------------|----------------|
D|----------------|----------------|2-2-2-2-2-2-2-2-|----------------|
A|----------------|0-0-0-0-0-0-0-0-|----------------|3---2-------2---|
E|3-3-3-3-3-3-3-3-|----------------|----------------|--------5-------|
  1 + 2 + 3 + 4 +  1 + 2 + 3 + 4 +  1 + 2 + 3 + 4 +  1   2   3   4
  On "Can't"       On "see"         End of "down"
  With all my friends, I'll paint a picture, but in the morning I'll be gone
G|----------------|----------------|----------------|----------------|
D|----------------|----------------|2-2-2-2-2-2-2-2-|----------------|
A|----------------|0-0-0-0-0-0-0-0-|----------------|3---2-------2---|
E|3-3-3-3-3-3-3-3-|----------------|----------------|--------5-------|
  1 + 2 + 3 + 4 +  1 + 2 + 3 + 4 +  1 + 2 + 3 + 4 +  1   2   3   4
  On "With"        On "friends"     On "pivture"     On "morning"

G|----------------|----------------|----------------|----------------|
D|----------------|----------------|2-2-2-2-2-2-2-2-|----------------|
A|----------------|0-0-0-0-0-0-0-0-|----------------|3---2-------2---|
E|3-3-3-3-3-3-3-3-|----------------|----------------|--------5-------|
  1 + 2 + 3 + 4 +  1 + 2 + 3 + 4 +  1 + 2 + 3 + 4 +  1   2   3   4

[Solo]

G|----------------|----------------|----------------|----------------|
D|----------------|----------------|2-2-2-2-2-2-2-2-|----------2-----|
A|----------------|3-3-3-3-5-5-5-5-|----------------|2-2-2-2-2---5-3-|
E|3-3-3-3-3-3-3-3-|----------------|----------------|----------------|
  1 + 2 + 3 + 4 +  1 + 2 + 3 + 4 +  1 + 2 + 3 + 4 +  1 + 2 + 3 + 4 +


G|----------------|----------------|----------------|----------------|
D|----------------|----------------|2-2-2-2-2-2-2-2-|----------2-----|
A|----------------|3-3-3-3-5-5-5-5-|----------------|2-2-2-2-2---5-3-|
E|3-3-3-3-3-3-3-3-|----------------|----------------|----------------|
  1 + 2 + 3 + 4 +  1 + 2 + 3 + 4 +  1 + 2 + 3 + 4 +  1 + 2 + 3 + 4 +

[Verse]
  I'm missing you, during the days, when the morning comes, I can't stay
G|----------------|----------------|----------------|----------------|
D|----------------|----------------|2---------------|----------------|
A|----------------|3-------5-------|----------------|2-------3-------|
E|3---------------|----------------|----------------|----------------|
  1   2   3   4    1   2   3   4    1   2   3   4    1   2   3   4   
  Before "I'm"     On "you"         On "when"        On "comes"
  If you saw me now I wouldn't grant your wish
G|----------------|----------------|----------------|----------------|
D|----------------|----------------|2---------------|----------------|
A|----------------|3-------5-------|----------------|2-------3-------|
E|3---------------|----------------|----------------|----------------|
  1   2   3   4    1   2   3   4    1   2   3   4    1   2   3   4   
  On "If           On "now"         On "wish"
[Chorus]
  I'm like a star, I'm burning out  I try to shine   But it's never  
                   fast                              gonna last
G|----------------|----------------|----------------|----------------|
D|----------------|----------------|2-2-2-----------|----------------|
A|----------------|0-0-0-----------|----------------|3-3-3-3-3-2---2-|
E|3-3-3-----------|----------------|----------------|------------5---|
  1 + 2            1 + 2            1 + 2            1 + 2 + 3 + 4 +
  On "I'm"         On "I'm"         On "I"           On "But"
  Can't you see you're just letting me down
G|----------------|----------------|----------------|----------------|
D|----------------|----------------|2-2-2-2-2-2-2-2-|----------------|
A|----------------|0-0-0-0-0-0-0-0-|----------------|3---2-------2---|
E|3-3-3-3-3-3-3-3-|----------------|----------------|--------5-------|
  1 + 2 + 3 + 4 +  1 + 2 + 3 + 4 +  1 + 2 + 3 + 4 +  1   2   3   4
  On "Can't"       On "see"         End of "down"
  With all my friends, I'll paint a picture, but in the morning I'll be gone
G|----------------|----------------|----------------|----------------|
D|----------------|----------------|2-2---2-2-2-----|----------------|
A|----------------|0-0---0-0-0-----|----------------|3---------------|
E|3-3---3-3-3-----|----------------|----------------|----------------|
  1 +   + 3 +      1 +   + 3 +      1 +   + 3 +      1   2   3   4
  On "With"        On "friends"     On "pivture"     On "morning"
End

Thank you, please comment any errors or suggestions in the comments.







            
            
Suggest correction
Creating personal tab
Creating personal tab
You can edit any tab online and save it as your Personal.

You can edit, replace or remove any tab part or add personal notes – all changes will be seen only by you.

Personal tabs can be accessed anytime from any device, even offline.
Learn more »
Give kudos to tab author, rate the tab!
1 2 3 4 5
comments
print report bad tab
guest
You may want to rate the tab now too:
select rating
Wanna post a correction for this tab? Suggest correction