Oops, an error
Loading. Please wait.

Afghan Tab

522 views 3 this week
no commentswrite comment
1 2 3 4 5
excellent!
x 3
add to favorites
launch autoscroll
font size
0
reset
how to read this tab
guitar tuner
Tab Pro tools
  • play this tab
  • loop segment
  • change instrument
  • show fretboard
  • metronome
Autoscroll
slow
fast
+/-
esc
set tempo
stop
Contributor
Difficulty
novice
                                          Artist - Mike Oldfield
                                         ************************
                                              Song - Afghan
                                             ***************
                                        Album - The Rarities Album
                                       ****************************
                                           Tabbed By - Ayreon77
                                          **********************

Acoustic Chords
****************
B E A E B

When the bagpipes come in the chords are
B A F#m B

00:01
[-------16-17-19-----b-------|---------h---17--b--b--b--b-]
[----19----------19-19-17-17-|-------16-17----19-19-17-17-]
[-16-------------------------|-16-18----------------------]
[----------------------------|----------------------------]
[----------------------------|----------------------------]
[----------------------------|----------------------------]X2


BAGPIPES
*********

00:27              h
[---p-----h--h---16-17-19-|--b-16~~-p------|---------h---17-b--b--b--b-]
[-19-17-16-17-19----------|-19----19-17-17-|-------16-17---19-19-17-17-]
[-------------------------|----------------|-16-18---------------------]
[-------------------------|----------------|---------------------------]
[-------------------------|----------------|---------------------------]
[-------------------------|----------------|---------------------------]


[-------16-17-19-----b-------|---------h---17--b--b--b--b-]
[----19----------19-19-17-17-|-------16-17----19-19-17-17-]
[-16-------------------------|-16-18----------------------]
[----------------------------|----------------------------]
[----------------------------|----------------------------]
[----------------------------|----------------------------]


BAGPIPES
*********
                
00:53               
[---h------------|--b--19--b-----|-----------|--b--19--b------]
[-16-17-19-16----|-19-----19-19~~|--br-------|-19-----19~~-19~]
[-------------16-|---------------|-18-16-16~~|----------------]
[----------------|---------------|-----------|----------------]
[----------------|---------------|-----------|----------------]
[----------------|---------------|-----------|----------------]

                                                    h         s
[---h------------|--b-------|-------|-19---s---19-19-21-19--19\-]
[-16-17-19-16----|-19----19-|--br---|----19\21------------------]
[-------------16-|----16----|-18-16-|---------------------------]
[----------------|----------|-------|---------------------------]
[----------------|----------|-------|---------------------------]
[----------------|----------|-------|---------------------------]

01:09
 Guitar 1
[---------------------------|------------------------------]
[--s------9-10-12-10--b-----|----------10-9---9------------]
[-9\11-11------------11-9-9-|-9----8-9------------11--11---]
[---------------------------|---11-------------------------]
[---------------------------|------------------------------]
[---------------------------|------------------------------]
|                                                          |
|Guitar 2                                                  |
[-----------------------------------------s---s------------]there is other 
[----------------------------------------7\9-7\9--s----s---]    guitar
[------------------------------------------------9\11-9\11-]slides on diff
[----------------------------------------------------------]frets & strings
[----------------------------------------------------------]
[----------------------------------------------------------]X2


BAGPIPES - B E B E B
*********

01:34
[---h--h---------|--b--19--b-----|-----------|--b--19--b------]
[-16-17-19-16----|-19-----19-19~~|--br-------|-19-----19~~-19~]
[-------------16-|---------------|-18-16-16~~|----------------]
[----------------|---------------|-----------|----------------]
[----------------|---------------|-----------|----------------]
[----------------|---------------|-----------|----------------]

                                                           h               s
[---h------------|--b--19--b-----|----------|--s---19----19-21-19----19--19\]
[-16-17-19-16----|-19-----19-19~~|-br-------|19\21----21----------21--------]
[-------------16-|---------------|18-16-16~~|-------------------------------]
[----------------|---------------|----------|-------------------------------]
[----------------|---------------|----------|-------------------------------]
[----------------|---------------|----------|-------------------------------]


[---h--h---------|--b-------|-----------|--b--19--b------s-]
[-16-17-19-16----|-19----19-|--br-----s-|-19-----19-19-19\-]
[-------------16-|----16----|-18-16-16\-|------------------]
[----------------|----------|-----------|------------------]
[----------------|----------|-----------|------------------]
[----------------|----------|-----------|------------------]

                                 rb                        h
[---h-b----|---s---19-------|-19-21-19---s---19-21-19----19-21-19~~~-]
[-16-17----|-19\21----21-19-|----------19\21----------21-------------]
[-------16-|----------------|----------------------------------------]
[----------|----------------|----------------------------------------]
[----------|----------------|----------------------------------------]
[----------|----------------|----------------------------------------]


BAGPIPES
*********

 Mini Acoustic Solo
[---------------------]
[---p-----------h-s---]
[-11-9---------8-9\11-]
[----------11---------]
[---------------------]
[---------------------]

Fade out with bagpipes.

Enjoy......................
comments
We did not receive enough feedback on this tab! Please rate:
print report bad tab
1 2 3 4 5
I want to post or [tab]
guest
You may want to rate the tab now too:
select rating
Please do not post tabs as comments. Select "correction" instead!