Oops, an error
Loading. Please wait.

Blue Peter Tab

7,745 views 3 this week
no commentswrite comment
1 2 3 4 5
x 3
add to favorites
launch autoscroll
font size
0
reset
how to read this tab
guitar tuner
Autoscroll
slow
fast
+/-
esc
set tempo
stop
Help us to improve Ultimate-Guitar.com Take our survey!
×
Author
Difficulty
intermediate
***** Blue Peter (1979)  *****

Thats right Mike Oldfield wrote blue peter
He is awesome.
by Wojciech Babiñski, amarokee@friko.onet.pl
Submitted by GoheX


e|-----------------------------------10-12-13-15-13-10----10---------------------|
b|--------------------10-11-13-13-13-------------------13----13-10---------------|
g|--------10-10-10-12----------------------------------------------12-10---10-12-|
D|--10-12----------------------------------------------------------------12------|
A|-------------------------------------------------------------------------------|
E|-------------------------------------------------------------------------------|

e|----------------------------------13-10-12-15-12-------10----------------------|
b|-------------------10-11-13-13-13----------------13-10----13-12-13-12-13-12-13-|
g|-------10-10-10-12-------------------------------------------------------------|
D|--10-12------------------------------------------------------------------------|
A|-------------------------------------------------------------------------------|
E|-------------------------------------------------------------------------------|

e|-----------------------------------10-12-13-15-13-10----10---------------------|
b|--------------------10-11-13-13-13-------------------13----13-10---------10-12-|
g|--------10-10-10-12----------------------------------------------12-10---------|
D|--10-12----------------------------------------------------------------12------|
A|-------------------------------------------------------------------------------|
E|-------------------------------------------------------------------------------|

e|-----------------------10----------------------10----10------------------------|
b|--------------------------13-10----10----10-------13----13-10----------10-10---|
g|--------10-12-10-12-10----------12----12----10----------------12-10-12------10-|
D|--10-12------------------------------------------------------------------------|
A|-------------------------------------------------------------------------------|
E|-------------------------------------------------------------------------------|

e|-------------------------------------------10-------------------10-9-10-------|
b|--13-12-13------------------13-12-13-12-13----------10------------------------|
g|-----------------12-10-9-12----------------------------12-11-12---------------|
D|-----------10-10------------------------------12-12---------------------------|
A|------------------------------------------------------------------------------|
E|------------------------------------------------------------------------------|

e|--12-13-15-13-12-10-13-12-10----12-10-------10---------------------------------|
b|-----------------------------13-------13-11----13-11-10-13-11-10---11-10-------|
g|-----------------------------------------------------------------12------12-10-|
D|-------------------------------------------------------------------------------|
A|-------------------------------------------------------------------------------|
E|-------------------------------------------------------------------------------|

e|----------------------------------|
b|----------------------------------|
g|----------------------------------|
D|--14-13-12-11-10------------------|
A|----------------------------------|
E|----------------------------------|
Suggest correction
Give kudos to tab author, rate the tab!
1 2 3 4 5
comments
print report bad tab
guest
You may want to rate the tab now too:
select rating
Wanna post a correction for this tab? Suggest correction